999
Outputted By AR_CAD Ver.1.5.0d
  0
SECTION
  2
HEADER
  9
$ACADVER
  1
AC1009
  9
$DWGCODEPAGE
  3
DOS932
  9
$EXTMIN
 10
0
 20
0
  9
$EXTMAX
 10
4158
 20
2940
  9
$INSBASE
 10
0.0
 20
0.0
 30
0.0
  9
$HANDLING
 70
     1
  9
$LTSCALE
 40
1
  0
ENDSEC
  0
SECTION
  2
TABLES
  0
TABLE
  2
LTYPE
 70
     8
  0
LTYPE
  2
BYBLOCK
 70
    64
 3

 72
    65
 73
    0
 40
    0
  0
LTYPE
  2
BYLAYER
 70
    64
 3

 72
    65
 73
    0
 40
    0
  0
LTYPE
  2
CONTINUOUS
 70
    64
 3
CONTINUOUS
 72
    65
 73
    0
 40
    0
  0
LTYPE
  2
DASHED
 70
    64
 3

 72
    65
 73
    2
 40
    3.5
 49
    2.917
 49
    -0.583
  0
LTYPE
  2
DOT
 70
    64
 3

 72
    65
 73
    2
 40
    0.5
 49
    0.25
 49
    -0.25
  0
LTYPE
  2
DASHDOT
 70
    64
 3

 72
    65
 73
    4
 40
    3.5
 49
    1.841
 49
    -0.553
 49
    0.553
 49
    -0.553
  0
LTYPE
  2
DIVIDE
 70
    64
 3

 72
    65
 73
    6
 40
    3.5
 49
    1.4
 49
    -0.42
 49
    0.42
 49
    -0.42
 49
    0.42
 49
    -0.42
  0
LTYPE
  2
HIDDEN
 70
    64
 3

 72
    65
 73
    2
 40
    4
 49
    2
 49
    -2
  0
LTYPE
  2
CENTER
 70
    64
 3

 72
    65
 73
    4
 40
    50.8
 49
    31.75
 49
    -6.35
 49
    6.35
 49
    -6.35
  0
ENDTAB
  0
TABLE
  2
LAYER
 70
   257
  0
LAYER
  2
0
 70
    0
 62
7
  6
CONTINUOUS
  0
LAYER
  2
寸法
 70
    0
 62
1
  6
CONTINUOUS
  0
LAYER
  2
中心
 70
    0
 62
1
  6
CONTINUOUS
  0
LAYER
  2
DEFPOINTS
 70
    0
 62
7
  6
CONTINUOUS
  0
LAYER
  2
図面枠
 70
    0
 62
7
  6
CONTINUOUS
  0
LAYER
  2
寸法___10
 70
    0
 62
1
  6
CONTINUOUS
  0
LAYER
  2
画層6
 70
    0
 62
7
  6
CONTINUOUS
  0
LAYER
  2
画層7
 70
    0
 62
51
  6
CONTINUOUS
  0
LAYER
  2
画層8
 70
    0
 62
61
  6
CONTINUOUS
  0
LAYER
  2
画層9
 70
    0
 62
111
  6
CONTINUOUS
  0
LAYER
  2
画層10
 70
    0
 62
91
  6
CONTINUOUS
  0
LAYER
  2
画層11
 70
    0
 62
131
  6
CONTINUOUS
  0
LAYER
  2
画層12
 70
    0
 62
161
  6
CONTINUOUS
  0
LAYER
  2
画層13
 70
    0
 62
5
  6
CONTINUOUS
  0
LAYER
  2
画層14
 70
    0
 62
7
  6
CONTINUOUS
  0
LAYER
  2
画層15
 70
    0
 62
11
  6
CONTINUOUS
  0
LAYER
  2
画層16
 70
    0
 62
7
  6
CONTINUOUS
  0
LAYER
  2
画層17
 70
    0
 62
70
  6
CONTINUOUS
  0
LAYER
  2
画層18
 70
    0
 62
211
  6
CONTINUOUS
  0
LAYER
  2
画層19
 70
    0
 62
137
  6
CONTINUOUS
  0
LAYER
  2
画層20
 70
    0
 62
4
  6
CONTINUOUS
  0
LAYER
  2
画層21
 70
    0
 62
131
  6
CONTINUOUS
  0
LAYER
  2
画層22
 70
    0
 62
4
  6
CONTINUOUS
  0
LAYER
  2
画層23
 70
    0
 62
4
  6
CONTINUOUS
  0
LAYER
  2
画層24
 70
    0
 62
7
  6
CONTINUOUS
  0
LAYER
  2
画層25
 70
    0
 62
7
  6
CONTINUOUS
  0
LAYER
  2
画層26
 70
    0
 62
7
  6
CONTINUOUS
  0
LAYER
  2
画層27
 70
    0
 62
7
  6
CONTINUOUS
  0
LAYER
  2
画層28
 70
    0
 62
7
  6
CONTINUOUS
  0
LAYER
  2
画層29
 70
    0
 62
7
  6
CONTINUOUS
  0
LAYER
  2
画層30
 70
    0
 62
7
  6
CONTINUOUS
  0
LAYER
  2
画層31
 70
    0
 62
7
  6
CONTINUOUS
  0
LAYER
  2
画層32
 70
    0
 62
7
  6
CONTINUOUS
  0
LAYER
  2
画層33
 70
    0
 62
7
  6
CONTINUOUS
  0
LAYER
  2
画層34
 70
    0
 62
7
  6
CONTINUOUS
  0
LAYER
  2
画層35
 70
    0
 62
7
  6
CONTINUOUS
  0
LAYER
  2
画層36
 70
    0
 62
7
  6
CONTINUOUS
  0
LAYER
  2
画層37
 70
    0
 62
7
  6
CONTINUOUS
  0
LAYER
  2
画層38
 70
    0
 62
7
  6
CONTINUOUS
  0
LAYER
  2
画層39
 70
    0
 62
7
  6
CONTINUOUS
  0
LAYER
  2
画層40
 70
    0
 62
7
  6
CONTINUOUS
  0
LAYER
  2
画層41
 70
    0
 62
7
  6
CONTINUOUS
  0
LAYER
  2
画層42
 70
    0
 62
7
  6
CONTINUOUS
  0
LAYER
  2
画層43
 70
    0
 62
7
  6
CONTINUOUS
  0
LAYER
  2
画層44
 70
    0
 62
7
  6
CONTINUOUS
  0
LAYER
  2
画層45
 70
    0
 62
7
  6
CONTINUOUS
  0
LAYER
  2
画層46
 70
    0
 62
7
  6
CONTINUOUS
  0
LAYER
  2
画層47
 70
    0
 62
7
  6
CONTINUOUS
  0
LAYER
  2
画層48
 70
    0
 62
7
  6
CONTINUOUS
  0
LAYER
  2
画層49
 70
    0
 62
7
  6
CONTINUOUS
  0
LAYER
  2
画層50
 70
    0
 62
7
  6
CONTINUOUS
  0
LAYER
  2
画層51
 70
    0
 62
7
  6
CONTINUOUS
  0
LAYER
  2
画層52
 70
    0
 62
7
  6
CONTINUOUS
  0
LAYER
  2
画層53
 70
    0
 62
7
  6
CONTINUOUS
  0
LAYER
  2
画層54
 70
    0
 62
7
  6
CONTINUOUS
  0
LAYER
  2
画層55
 70
    0
 62
7
  6
CONTINUOUS
  0
LAYER
  2
画層56
 70
    0
 62
7
  6
CONTINUOUS
  0
LAYER
  2
画層57
 70
    0
 62
7
  6
CONTINUOUS
  0
LAYER
  2
画層58
 70
    0
 62
7
  6
CONTINUOUS
  0
LAYER
  2
画層59
 70
    0
 62
7
  6
CONTINUOUS
  0
LAYER
  2
画層60
 70
    0
 62
7
  6
CONTINUOUS
  0
LAYER
  2
画層61
 70
    0
 62
7
  6
CONTINUOUS
  0
LAYER
  2
画層62
 70
    0
 62
7
  6
CONTINUOUS
  0
LAYER
  2
画層63
 70
    0
 62
7
  6
CONTINUOUS
  0
LAYER
  2
画層64
 70
    0
 62
7
  6
CONTINUOUS
  0
LAYER
  2
画層65
 70
    0
 62
7
  6
CONTINUOUS
  0
LAYER
  2
画層66
 70
    0
 62
7
  6
CONTINUOUS
  0
LAYER
  2
画層67
 70
    0
 62
7
  6
CONTINUOUS
  0
LAYER
  2
画層68
 70
    0
 62
7
  6
CONTINUOUS
  0
LAYER
  2
画層69
 70
    0
 62
7
  6
CONTINUOUS
  0
LAYER
  2
画層70
 70
    0
 62
7
  6
CONTINUOUS
  0
LAYER
  2
画層71
 70
    0
 62
7
  6
CONTINUOUS
  0
LAYER
  2
画層72
 70
    0
 62
7
  6
CONTINUOUS
  0
LAYER
  2
画層73
 70
    0
 62
7
  6
CONTINUOUS
  0
LAYER
  2
画層74
 70
    0
 62
7
  6
CONTINUOUS
  0
LAYER
  2
画層75
 70
    0
 62
7
  6
CONTINUOUS
  0
LAYER
  2
画層76
 70
    0
 62
7
  6
CONTINUOUS
  0
LAYER
  2
画層77
 70
    0
 62
7
  6
CONTINUOUS
  0
LAYER
  2
画層78
 70
    0
 62
7
  6
CONTINUOUS
  0
LAYER
  2
画層79
 70
    0
 62
7
  6
CONTINUOUS
  0
LAYER
  2
画層80
 70
    0
 62
7
  6
CONTINUOUS
  0
LAYER
  2
画層81
 70
    0
 62
7
  6
CONTINUOUS
  0
LAYER
  2
画層82
 70
    0
 62
7
  6
CONTINUOUS
  0
LAYER
  2
画層83
 70
    0
 62
7
  6
CONTINUOUS
  0
LAYER
  2
画層84
 70
    0
 62
7
  6
CONTINUOUS
  0
LAYER
  2
画層85
 70
    0
 62
7
  6
CONTINUOUS
  0
LAYER
  2
画層86
 70
    0
 62
7
  6
CONTINUOUS
  0
LAYER
  2
画層87
 70
    0
 62
7
  6
CONTINUOUS
  0
LAYER
  2
画層88
 70
    0
 62
7
  6
CONTINUOUS
  0
LAYER
  2
画層89
 70
    0
 62
7
  6
CONTINUOUS
  0
LAYER
  2
画層90
 70
    0
 62
7
  6
CONTINUOUS
  0
LAYER
  2
画層91
 70
    0
 62
7
  6
CONTINUOUS
  0
LAYER
  2
画層92
 70
    0
 62
7
  6
CONTINUOUS
  0
LAYER
  2
画層93
 70
    0
 62
7
  6
CONTINUOUS
  0
LAYER
  2
画層94
 70
    0
 62
7
  6
CONTINUOUS
  0
LAYER
  2
画層95
 70
    0
 62
7
  6
CONTINUOUS
  0
LAYER
  2
画層96
 70
    0
 62
7
  6
CONTINUOUS
  0
LAYER
  2
画層97
 70
    0
 62
7
  6
CONTINUOUS
  0
LAYER
  2
画層98
 70
    0
 62
7
  6
CONTINUOUS
  0
LAYER
  2
画層99
 70
    0
 62
7
  6
CONTINUOUS
  0
LAYER
  2
画層100
 70
    0
 62
7
  6
CONTINUOUS
  0
LAYER
  2
画層101
 70
    0
 62
7
  6
CONTINUOUS
  0
LAYER
  2
画層102
 70
    0
 62
7
  6
CONTINUOUS
  0
LAYER
  2
画層103
 70
    0
 62
7
  6
CONTINUOUS
  0
LAYER
  2
画層104
 70
    0
 62
7
  6
CONTINUOUS
  0
LAYER
  2
画層105
 70
    0
 62
7
  6
CONTINUOUS
  0
LAYER
  2
画層106
 70
    0
 62
7
  6
CONTINUOUS
  0
LAYER
  2
画層107
 70
    0
 62
7
  6
CONTINUOUS
  0
LAYER
  2
画層108
 70
    0
 62
7
  6
CONTINUOUS
  0
LAYER
  2
画層109
 70
    0
 62
7
  6
CONTINUOUS
  0
LAYER
  2
画層110
 70
    0
 62
7
  6
CONTINUOUS
  0
LAYER
  2
画層111
 70
    0
 62
7
  6
CONTINUOUS
  0
LAYER
  2
画層112
 70
    0
 62
7
  6
CONTINUOUS
  0
LAYER
  2
画層113
 70
    0
 62
7
  6
CONTINUOUS
  0
LAYER
  2
画層114
 70
    0
 62
7
  6
CONTINUOUS
  0
LAYER
  2
画層115
 70
    0
 62
7
  6
CONTINUOUS
  0
LAYER
  2
画層116
 70
    0
 62
7
  6
CONTINUOUS
  0
LAYER
  2
画層117
 70
    0
 62
7
  6
CONTINUOUS
  0
LAYER
  2
画層118
 70
    0
 62
7
  6
CONTINUOUS
  0
LAYER
  2
画層119
 70
    0
 62
7
  6
CONTINUOUS
  0
LAYER
  2
画層120
 70
    0
 62
7
  6
CONTINUOUS
  0
LAYER
  2
画層121
 70
    0
 62
7
  6
CONTINUOUS
  0
LAYER
  2
画層122
 70
    0
 62
7
  6
CONTINUOUS
  0
LAYER
  2
画層123
 70
    0
 62
7
  6
CONTINUOUS
  0
LAYER
  2
画層124
 70
    0
 62
7
  6
CONTINUOUS
  0
LAYER
  2
画層125
 70
    0
 62
7
  6
CONTINUOUS
  0
LAYER
  2
画層126
 70
    0
 62
7
  6
CONTINUOUS
  0
LAYER
  2
画層127
 70
    0
 62
7
  6
CONTINUOUS
  0
LAYER
  2
画層128
 70
    0
 62
7
  6
CONTINUOUS
  0
LAYER
  2
画層129
 70
    0
 62
7
  6
CONTINUOUS
  0
LAYER
  2
画層130
 70
    0
 62
7
  6
CONTINUOUS
  0
LAYER
  2
画層131
 70
    0
 62
7
  6
CONTINUOUS
  0
LAYER
  2
画層132
 70
    0
 62
7
  6
CONTINUOUS
  0
LAYER
  2
画層133
 70
    0
 62
7
  6
CONTINUOUS
  0
LAYER
  2
画層134
 70
    0
 62
7
  6
CONTINUOUS
  0
LAYER
  2
画層135
 70
    0
 62
7
  6
CONTINUOUS
  0
LAYER
  2
画層136
 70
    0
 62
7
  6
CONTINUOUS
  0
LAYER
  2
画層137
 70
    0
 62
7
  6
CONTINUOUS
  0
LAYER
  2
画層138
 70
    0
 62
7
  6
CONTINUOUS
  0
LAYER
  2
画層139
 70
    0
 62
7
  6
CONTINUOUS
  0
LAYER
  2
画層140
 70
    0
 62
7
  6
CONTINUOUS
  0
LAYER
  2
画層141
 70
    0
 62
7
  6
CONTINUOUS
  0
LAYER
  2
画層142
 70
    0
 62
7
  6
CONTINUOUS
  0
LAYER
  2
画層143
 70
    0
 62
7
  6
CONTINUOUS
  0
LAYER
  2
画層144
 70
    0
 62
7
  6
CONTINUOUS
  0
LAYER
  2
画層145
 70
    0
 62
7
  6
CONTINUOUS
  0
LAYER
  2
画層146
 70
    0
 62
7
  6
CONTINUOUS
  0
LAYER
  2
画層147
 70
    0
 62
7
  6
CONTINUOUS
  0
LAYER
  2
画層148
 70
    0
 62
7
  6
CONTINUOUS
  0
LAYER
  2
画層149
 70
    0
 62
7
  6
CONTINUOUS
  0
LAYER
  2
画層150
 70
    0
 62
7
  6
CONTINUOUS
  0
LAYER
  2
画層151
 70
    0
 62
7
  6
CONTINUOUS
  0
LAYER
  2
画層152
 70
    0
 62
7
  6
CONTINUOUS
  0
LAYER
  2
画層153
 70
    0
 62
7
  6
CONTINUOUS
  0
LAYER
  2
画層154
 70
    0
 62
7
  6
CONTINUOUS
  0
LAYER
  2
画層155
 70
    0
 62
7
  6
CONTINUOUS
  0
LAYER
  2
画層156
 70
    0
 62
7
  6
CONTINUOUS
  0
LAYER
  2
画層157
 70
    0
 62
7
  6
CONTINUOUS
  0
LAYER
  2
画層158
 70
    0
 62
7
  6
CONTINUOUS
  0
LAYER
  2
画層159
 70
    0
 62
7
  6
CONTINUOUS
  0
LAYER
  2
画層160
 70
    0
 62
7
  6
CONTINUOUS
  0
LAYER
  2
画層161
 70
    0
 62
7
  6
CONTINUOUS
  0
LAYER
  2
画層162
 70
    0
 62
7
  6
CONTINUOUS
  0
LAYER
  2
画層163
 70
    0
 62
7
  6
CONTINUOUS
  0
LAYER
  2
画層164
 70
    0
 62
7
  6
CONTINUOUS
  0
LAYER
  2
画層165
 70
    0
 62
7
  6
CONTINUOUS
  0
LAYER
  2
画層166
 70
    0
 62
7
  6
CONTINUOUS
  0
LAYER
  2
画層167
 70
    0
 62
7
  6
CONTINUOUS
  0
LAYER
  2
画層168
 70
    0
 62
7
  6
CONTINUOUS
  0
LAYER
  2
画層169
 70
    0
 62
7
  6
CONTINUOUS
  0
LAYER
  2
画層170
 70
    0
 62
7
  6
CONTINUOUS
  0
LAYER
  2
画層171
 70
    0
 62
7
  6
CONTINUOUS
  0
LAYER
  2
画層172
 70
    0
 62
7
  6
CONTINUOUS
  0
LAYER
  2
画層173
 70
    0
 62
7
  6
CONTINUOUS
  0
LAYER
  2
画層174
 70
    0
 62
7
  6
CONTINUOUS
  0
LAYER
  2
画層175
 70
    0
 62
7
  6
CONTINUOUS
  0
LAYER
  2
画層176
 70
    0
 62
7
  6
CONTINUOUS
  0
LAYER
  2
画層177
 70
    0
 62
7
  6
CONTINUOUS
  0
LAYER
  2
画層178
 70
    0
 62
7
  6
CONTINUOUS
  0
LAYER
  2
画層179
 70
    0
 62
7
  6
CONTINUOUS
  0
LAYER
  2
画層180
 70
    0
 62
7
  6
CONTINUOUS
  0
LAYER
  2
画層181
 70
    0
 62
7
  6
CONTINUOUS
  0
LAYER
  2
画層182
 70
    0
 62
7
  6
CONTINUOUS
  0
LAYER
  2
画層183
 70
    0
 62
7
  6
CONTINUOUS
  0
LAYER
  2
画層184
 70
    0
 62
7
  6
CONTINUOUS
  0
LAYER
  2
画層185
 70
    0
 62
7
  6
CONTINUOUS
  0
LAYER
  2
画層186
 70
    0
 62
7
  6
CONTINUOUS
  0
LAYER
  2
画層187
 70
    0
 62
7
  6
CONTINUOUS
  0
LAYER
  2
画層188
 70
    0
 62
7
  6
CONTINUOUS
  0
LAYER
  2
画層189
 70
    0
 62
7
  6
CONTINUOUS
  0
LAYER
  2
画層190
 70
    0
 62
7
  6
CONTINUOUS
  0
LAYER
  2
画層191
 70
    0
 62
7
  6
CONTINUOUS
  0
LAYER
  2
画層192
 70
    0
 62
7
  6
CONTINUOUS
  0
LAYER
  2
画層193
 70
    0
 62
7
  6
CONTINUOUS
  0
LAYER
  2
画層194
 70
    0
 62
7
  6
CONTINUOUS
  0
LAYER
  2
画層195
 70
    0
 62
7
  6
CONTINUOUS
  0
LAYER
  2
画層196
 70
    0
 62
7
  6
CONTINUOUS
  0
LAYER
  2
画層197
 70
    0
 62
7
  6
CONTINUOUS
  0
LAYER
  2
画層198
 70
    0
 62
7
  6
CONTINUOUS
  0
LAYER
  2
画層199
 70
    0
 62
7
  6
CONTINUOUS
  0
LAYER
  2
画層200
 70
    0
 62
7
  6
CONTINUOUS
  0
LAYER
  2
画層201
 70
    0
 62
7
  6
CONTINUOUS
  0
LAYER
  2
画層202
 70
    0
 62
7
  6
CONTINUOUS
  0
LAYER
  2
画層203
 70
    0
 62
7
  6
CONTINUOUS
  0
LAYER
  2
画層204
 70
    0
 62
7
  6
CONTINUOUS
  0
LAYER
  2
画層205
 70
    0
 62
7
  6
CONTINUOUS
  0
LAYER
  2
画層206
 70
    0
 62
7
  6
CONTINUOUS
  0
LAYER
  2
画層207
 70
    0
 62
7
  6
CONTINUOUS
  0
LAYER
  2
画層208
 70
    0
 62
7
  6
CONTINUOUS
  0
LAYER
  2
画層209
 70
    0
 62
7
  6
CONTINUOUS
  0
LAYER
  2
画層210
 70
    0
 62
7
  6
CONTINUOUS
  0
LAYER
  2
画層211
 70
    0
 62
7
  6
CONTINUOUS
  0
LAYER
  2
画層212
 70
    0
 62
7
  6
CONTINUOUS
  0
LAYER
  2
画層213
 70
    0
 62
7
  6
CONTINUOUS
  0
LAYER
  2
画層214
 70
    0
 62
7
  6
CONTINUOUS
  0
LAYER
  2
画層215
 70
    0
 62
7
  6
CONTINUOUS
  0
LAYER
  2
画層216
 70
    0
 62
7
  6
CONTINUOUS
  0
LAYER
  2
画層217
 70
    0
 62
7
  6
CONTINUOUS
  0
LAYER
  2
画層218
 70
    0
 62
7
  6
CONTINUOUS
  0
LAYER
  2
画層219
 70
    0
 62
7
  6
CONTINUOUS
  0
LAYER
  2
画層220
 70
    0
 62
7
  6
CONTINUOUS
  0
LAYER
  2
画層221
 70
    0
 62
7
  6
CONTINUOUS
  0
LAYER
  2
画層222
 70
    0
 62
7
  6
CONTINUOUS
  0
LAYER
  2
画層223
 70
    0
 62
7
  6
CONTINUOUS
  0
LAYER
  2
画層224
 70
    0
 62
7
  6
CONTINUOUS
  0
LAYER
  2
画層225
 70
    0
 62
7
  6
CONTINUOUS
  0
LAYER
  2
画層226
 70
    0
 62
7
  6
CONTINUOUS
  0
LAYER
  2
画層227
 70
    0
 62
7
  6
CONTINUOUS
  0
LAYER
  2
画層228
 70
    0
 62
7
  6
CONTINUOUS
  0
LAYER
  2
画層229
 70
    0
 62
7
  6
CONTINUOUS
  0
LAYER
  2
画層230
 70
    0
 62
7
  6
CONTINUOUS
  0
LAYER
  2
画層231
 70
    0
 62
7
  6
CONTINUOUS
  0
LAYER
  2
画層232
 70
    0
 62
7
  6
CONTINUOUS
  0
LAYER
  2
画層233
 70
    0
 62
7
  6
CONTINUOUS
  0
LAYER
  2
画層234
 70
    0
 62
7
  6
CONTINUOUS
  0
LAYER
  2
画層235
 70
    0
 62
7
  6
CONTINUOUS
  0
LAYER
  2
画層236
 70
    0
 62
7
  6
CONTINUOUS
  0
LAYER
  2
画層237
 70
    0
 62
7
  6
CONTINUOUS
  0
LAYER
  2
画層238
 70
    0
 62
7
  6
CONTINUOUS
  0
LAYER
  2
画層239
 70
    0
 62
7
  6
CONTINUOUS
  0
LAYER
  2
画層240
 70
    0
 62
7
  6
CONTINUOUS
  0
LAYER
  2
画層241
 70
    0
 62
7
  6
CONTINUOUS
  0
LAYER
  2
画層242
 70
    0
 62
7
  6
CONTINUOUS
  0
LAYER
  2
画層243
 70
    0
 62
7
  6
CONTINUOUS
  0
LAYER
  2
画層244
 70
    0
 62
7
  6
CONTINUOUS
  0
LAYER
  2
画層245
 70
    0
 62
7
  6
CONTINUOUS
  0
LAYER
  2
画層246
 70
    0
 62
7
  6
CONTINUOUS
  0
LAYER
  2
画層247
 70
    0
 62
7
  6
CONTINUOUS
  0
LAYER
  2
画層248
 70
    0
 62
7
  6
CONTINUOUS
  0
LAYER
  2
画層249
 70
    0
 62
7
  6
CONTINUOUS
  0
LAYER
  2
画層250
 70
    0
 62
7
  6
CONTINUOUS
  0
LAYER
  2
画層251
 70
    0
 62
7
  6
CONTINUOUS
  0
LAYER
  2
画層252
 70
    0
 62
7
  6
CONTINUOUS
  0
LAYER
  2
画層253
 70
    0
 62
7
  6
CONTINUOUS
  0
LAYER
  2
画層254
 70
    0
 62
7
  6
CONTINUOUS
  0
LAYER
  2
画層255
 70
    0
 62
7
  6
CONTINUOUS
  0
ENDTAB
  0
TABLE
  2
STYLE
 70
     1
  0
STYLE
  2
Standard
 70
     0
 40
0.0
 41
1.0
 50
0.0
 71
     0
 42
3.2
  3
TXT
  4
BIGFONT
  0
STYLE
  2
Font_0
 70
     0
 40
0.0
 41
1.0
 50
0.0
 71
     0
 42
3.2
  3
txt
  4
BIGFONT
  0
ENDTAB
  0
ENDSEC
  0
SECTION
  2
ENTITIES
  0
LINE
  8
0
  6
BYLAYER
 10
1850.9140909461
 20
1375.47116325926
 11
2288.9140909461
 21
1375.47116325926
  0
ARC
  8
0
  6
BYLAYER
 10
2288.9140909461
 20
1371.47116325926
 40
4
 50
270
 51
90
  0
LINE
  8
0
  6
BYLAYER
 10
1854.9140909461
 20
1367.47116325926
 11
1854.9140909461
 21
1355.47116325926
  0
ARC
  8
0
  6
BYLAYER
 10
1850.9140909461
 20
1371.47116325926
 40
4
 50
90
 51
270
  0
LINE
  8
0
  6
BYLAYER
 10
1854.9140909461
 20
1355.47116325926
 11
1864.54529285085
 21
1300.64739857068
  0
LINE
  8
0
  6
BYLAYER
 10
2276.29820275789
 20
1300.64739857067
 11
2285.89900820241
 21
1355.29813725478
  0
LINE
  8
0
  6
BYLAYER
 10
2285.9140909461
 20
1355.47116325926
 11
2285.9140909461
 21
1367.47116325926
  0
LINE
  8
0
  6
BYLAYER
 10
1892.01409094612
 20
480.647398570673
 11
2265.81409094612
 21
480.647398570673
  0
LINE
  8
0
  6
BYLAYER
 10
1892.01409094612
 20
505.647398570673
 11
2237.31409094612
 21
505.647398570673
  0
LINE
  8
0
  6
BYLAYER
 10
1892.01409094612
 20
755.647398570673
 11
2237.31409094612
 21
755.647398570673
  0
ARC
  8
0
  6
BYLAYER
 10
1892.01409094612
 20
493.147398570673
 40
12.5
 50
90
 51
270
  0
ARC
  8
0
  6
BYLAYER
 10
1892.01409094612
 20
768.147398570673
 40
12.5
 50
90
 51
270
  0
LINE
  8
0
  6
BYLAYER
 10
2237.31409094612
 20
480.647398570673
 11
2237.31409094612
 21
780.647398570673
  0
LINE
  8
0
  6
BYLAYER
 10
2262.31409094612
 20
480.647398570673
 11
2262.31409094612
 21
1166.02028861971
  0
LINE
  8
0
  6
BYLAYER
 10
1972.31409094612
 20
505.647398570673
 11
1972.31409094612
 21
755.647398570673
  0
LINE
  8
0
  6
BYLAYER
 10
1997.31409094612
 20
505.647398570673
 11
1997.31409094612
 21
755.647398570673
  0
LINE
  8
0
  6
BYLAYER
 10
2292.90420930651
 20
1192.91669275426
 11
2403.57888384235
 21
1447.6665829902
  0
LINE
  8
0
  6
BYLAYER
 10
2269.97462351407
 20
1202.8783239152
 11
2380.64929804991
 21
1457.62821415114
  0
LINE
  8
0
  6
BYLAYER
 10
2287.31409094612
 20
1166.02028861971
 11
2287.31409094612
 21
680.647398570673
  0
ARC
  8
0
  6
BYLAYER
 10
2354.81409094612
 20
1166.02028861971
 40
67.5
 50
156.517731375954
 51
180
  0
ARC
  8
0
  6
BYLAYER
 10
2354.81409094612
 20
1166.02028861971
 40
92.5
 50
156.517731375954
 51
180
  0
ARC
  8
0
  6
BYLAYER
 10
2392.11409094613
 20
1452.64739857067
 40
12.5
 50
336.517731375954
 51
156.517731375954
  0
LINE
  8
0
  6
BYLAYER
 10
2287.31409094612
 20
680.647398570673
 11
2262.31409094612
 21
680.647398570673
  0
LINE
  8
0
  6
BYLAYER
 10
2235.81409094613
 20
455.647398570673
 11
2263.81409094612
 21
455.647398570673
  0
LINE
  8
0
  6
BYLAYER
 10
2235.81409094613
 20
455.647398570673
 11
2233.81409094612
 21
480.647398570673
  0
LINE
  8
0
  6
BYLAYER
 10
2263.81409094612
 20
455.647398570673
 11
2265.81409094612
 21
480.647398570673
  0
LINE
  8
0
  6
BYLAYER
 10
1913.91409094613
 20
455.647398570673
 11
1941.91409094613
 21
455.647398570673
  0
LINE
  8
0
  6
BYLAYER
 10
1913.91409094613
 20
455.647398570673
 11
1911.91409094613
 21
480.647398570673
  0
LINE
  8
0
  6
BYLAYER
 10
1941.91409094613
 20
455.647398570673
 11
1943.91409094613
 21
480.647398570673
  0
LINE
  8
0
  6
BYLAYER
 10
2305.61536113536
 20
546.647398570673
 11
2262.31409094612
 21
571.647398570673
  0
LINE
  8
0
  6
BYLAYER
 10
2330.61536113537
 20
503.346128381473
 11
2305.61536113536
 21
546.647398570673
  0
LINE
  8
0
  6
BYLAYER
 10
2307.62948029796
 20
475.863377072904
 11
2272.41862478457
 21
492.282468648988
  0
LINE
  8
0
  6
BYLAYER
 10
2262.31409094612
 20
521.647398570659
 11
2272.41862478455
 21
492.282468649003
  0
CIRCLE
  8
0
  6
BYLAYER
 10
2312.31409094612
 20
495.441822641148
 40
6
  0
ARC
  8
0
  6
BYLAYER
 10
2312.31409094612
 20
495.441822641148
 40
19.9826441281038
 50
235.769687489053
 51
37.7202357809542
  0
ARC
  8
0
  6
BYLAYER
 10
2312.31409094612
 20
495.441822641148
 40
32.5
 50
192.364911686142
 51
82.4627223398171
  0
LINE
  8
0
  6
BYLAYER
 10
1896.91409094612
 20
1050.64739857067
 11
2244.91409094612
 21
1050.64739857067
  0
LINE
  8
0
  6
BYLAYER
 10
1896.91409094612
 20
1050.64739857067
 11
1896.91409094612
 21
966.647398570673
  0
LINE
  8
0
  6
BYLAYER
 10
2244.91409094612
 20
1050.64739857067
 11
2244.91409094612
 21
966.647398570673
  0
LINE
  8
0
  6
BYLAYER
 10
1896.91409094612
 20
966.647398570673
 11
2244.91409094612
 21
966.647398570673
  0
LINE
  8
0
  6
BYLAYER
 10
1912.41409094612
 20
790.447398570676
 11
1912.41409094612
 21
966.647398570673
  0
ARC
  8
0
  6
BYLAYER
 10
1906.41409094612
 20
790.447398570676
 40
6
 50
270
 51
0
  0
LINE
  8
0
  6
BYLAYER
 10
2229.41409094612
 20
790.447398570676
 11
2229.41409094612
 21
966.647398570673
  0
ARC
  8
0
  6
BYLAYER
 10
2235.41409094612
 20
790.447398570676
 40
6
 50
180
 51
270
  0
LINE
  8
0
  6
BYLAYER
 10
2262.31409094612
 20
780.647398570673
 11
1882.41409094612
 21
780.647398570673
  0
LINE
  8
0
  6
BYLAYER
 10
2259.41409094612
 20
780.647398570673
 11
2259.41409094612
 21
784.447398570676
  0
LINE
  8
0
  6
BYLAYER
 10
1882.41409094612
 20
780.647398570673
 11
1882.41409094612
 21
784.447398570676
  0
LINE
  8
0
  6
BYLAYER
 10
1882.41409094612
 20
784.447398570676
 11
2259.41409094612
 21
784.447398570676
  0
LINE
  8
0
  6
BYLAYER
 10
2198.02795468565
 20
2301.11975253806
 11
2237.31409094612
 21
2301.11975253806
  0
ARC
  8
0
  6
BYLAYER
 10
1972.01409094612
 20
2013.61975253806
 40
92.5
 50
199.087141292927
 51
251.217947782324
  0
ARC
  8
0
  6
BYLAYER
 10
1972.01409094612
 20
2208.61975253806
 40
92.5
 50
116.981872438338
 51
154.978960285869
  0
LINE
  8
0
  6
BYLAYER
 10
2192.12725459029
 20
1921.11975253807
 11
2237.31409094612
 21
1921.11975253806
  0
LINE
  8
0
  6
BYLAYER
 10
2262.31409094612
 20
2303.61975253806
 11
2262.31409094612
 21
2235.09302072919
  0
LINE
  8
0
  6
BYLAYER
 10
2262.31409094612
 20
1991.00254569999
 11
2262.31409094612
 21
1918.61975253806
  0
LINE
  8
0
  6
BYLAYER
 10
2237.31409094612
 20
2303.61975253806
 11
2237.31409094612
 21
2267.44998527141
  0
LINE
  8
0
  6
BYLAYER
 10
2237.31409094612
 20
1958.64558115776
 11
2237.31409094612
 21
1918.61975253806
  0
LINE
  8
0
  6
BYLAYER
 10
2237.31409094612
 20
2303.61975253806
 11
2262.31409094612
 21
2303.61975253806
  0
LINE
  8
0
  6
BYLAYER
 10
2237.31409094612
 20
1918.61975253806
 11
2262.31409094612
 21
1918.61975253806
  0
LINE
  8
0
  6
BYLAYER
 10
2228.82714557101
 20
2276.11975253806
 11
2237.31409094612
 21
2276.11975253806
  0
LINE
  8
0
  6
BYLAYER
 10
2224.74527300768
 20
1946.11975253807
 11
2237.31409094612
 21
1946.11975253806
  0
LINE
  8
中心
  6
DASHDOT
 10
2427.79993104308
 20
2113.04778321459
 11
1674.29903680472
 21
2113.04778321459
  0
LINE
  8
中心
  6
DASHDOT
 10
2070.91409094612
 20
1840.9599878563
 11
2070.91409094612
 21
2384.24037573076
  0
LINE
  8
0
  6
BYLAYER
 10
2297.91409094612
 20
1300.64739857067
 11
2081.4140909461
 21
1300.64739857067
  0
LINE
  8
0
  6
BYLAYER
 10
2060.4140909461
 20
1300.64739857067
 11
1843.91409094612
 21
1300.64739857067
  0
LINE
  8
0
  6
BYLAYER
 10
1843.91409094612
 20
1310.64739857067
 11
1843.91409094613
 21
1244.17781866465
  0
LINE
  8
0
  6
BYLAYER
 10
2183.31787971755
 20
1174.46073753464
 11
2039.14971745148
 21
1174.46073753464
  0
LINE
  8
0
  6
BYLAYER
 10
1906.91409094613
 20
1205.64739857067
 11
1847.00023335906
 21
1238.93287500793
  0
ARC
  8
0
  6
BYLAYER
 10
1849.91409094613
 20
1244.17781866465
 40
6
 50
180
 51
240.945395900068
  0
LINE
  8
0
  6
BYLAYER
 10
2296.51409094612
 20
1300.64739857067
 11
2296.51409094612
 21
1263.96661212195
  0
LINE
  8
0
  6
BYLAYER
 10
2185.6801334627
 20
1178.29519996875
 11
2282.71469102959
 21
1232.20328750593
  0
LINE
  8
0
  6
BYLAYER
 10
2183.31409094611
 20
1174.2740764986
 11
2183.3140909461
 21
1053.04739857067
  0
ARC
  8
0
  6
BYLAYER
 10
2187.91409094612
 20
1174.2740764986
 40
4.6
 50
119.054604099932
 51
180
  0
LINE
  8
0
  6
BYLAYER
 10
1958.51409094611
 20
1082.95562580914
 11
1958.51409094612
 21
1053.04739857067
  0
LINE
  8
0
  6
BYLAYER
 10
2215.41409094612
 20
1053.04739857067
 11
1926.41409094612
 21
1053.04739857067
  0
LINE
  8
0
  6
BYLAYER
 10
1960.91409094612
 20
1083.98178093174
 11
1960.91409094612
 21
1050.64739857067
  0
LINE
  8
0
  6
BYLAYER
 10
2215.41409094612
 20
1050.64739857067
 11
2215.41409094612
 21
1053.04739857067
  0
LINE
  8
0
  6
BYLAYER
 10
1926.41409094612
 20
1050.64739857067
 11
1926.41409094612
 21
1053.04739857067
  0
LINE
  8
0
  6
BYLAYER
 10
1906.91409094612
 20
1205.64739857067
 11
2039.14971745147
 21
1175.64739857067
  0
LINE
  8
0
  6
BYLAYER
 10
2297.9140909461
 20
1267.18911851581
 11
2297.91409094612
 21
1310.64739857067
  0
LINE
  8
0
  6
BYLAYER
 10
2299.91409094609
 20
1271.79269907846
 11
2299.91409094612
 21
1310.64739857067
  0
LINE
  8
0
  6
BYLAYER
 10
2297.91409094612
 20
1310.64739857067
 11
2306.39391964698
 21
1310.64739857067
  0
LINE
  8
0
  6
BYLAYER
 10
2299.9140909461
 20
1301.64739857067
 11
2304.41409094612
 21
1301.64739857067
  0
ARC
  8
0
  6
BYLAYER
 10
2304.41409094612
 20
1306.14739857067
 40
4.5
 50
270
 51
90
  0
CIRCLE
  8
0
  6
BYLAYER
 10
2304.41409094612
 20
1306.14739857067
 40
1.1
  0
ARC
  8
0
  6
BYLAYER
 10
2305.91409094612
 20
1284.64739857067
 40
3.5
 50
90
 51
240.269122481569
  0
LINE
  8
0
  6
BYLAYER
 10
2311.37751073354
 20
1298.17908733599
 11
2308.32095546624
 21
1309.18268629825
  0
ARC
  8
0
  6
BYLAYER
 10
2306.39391964698
 20
1308.64739857067
 40
2
 50
15.524110996665
 51
90
  0
LINE
  8
0
  6
BYLAYER
 10
2305.91409094612
 20
1288.14739857067
 11
2307.01929928107
 21
1288.14739857068
  0
LINE
  8
0
  6
BYLAYER
 10
2299.91409094612
 20
1298.64739857067
 11
2300.2140909461
 21
1301.64739857067
  0
CIRCLE
  8
0
  6
BYLAYER
 10
2302.91409094612
 20
1293.64739857067
 40
1.1
  0
LINE
  8
0
  6
BYLAYER
 10
1841.91409094612
 20
1254.64739857067
 11
1841.91409094612
 21
1310.64739857067
  0
LINE
  8
0
  6
BYLAYER
 10
1843.91409094612
 20
1254.64739857067
 11
1841.91409094612
 21
1254.64739857067
  0
LINE
  8
0
  6
BYLAYER
 10
1841.91409094613
 20
1301.64739857067
 11
1837.41409094612
 21
1301.64739857067
  0
ARC
  8
0
  6
BYLAYER
 10
1837.41409094612
 20
1306.14739857067
 40
4.5
 50
90
 51
270
  0
CIRCLE
  8
0
  6
BYLAYER
 10
1837.41409094612
 20
1306.14739857067
 40
1.1
  0
LINE
  8
0
  6
BYLAYER
 10
1843.91409094612
 20
1310.64739857067
 11
1835.43426224526
 21
1310.64739857067
  0
ARC
  8
0
  6
BYLAYER
 10
1835.91409094612
 20
1284.64739857067
 40
3.5
 50
270
 51
90
  0
LINE
  8
0
  6
BYLAYER
 10
1839.4346552019
 20
1259.45116027592
 11
1832.17013143339
 21
1278.69293933946
  0
ARC
  8
0
  6
BYLAYER
 10
1834.11781385288
 20
1279.14739857067
 40
2
 50
90
 51
193.134022306154
  0
LINE
  8
0
  6
BYLAYER
 10
1829.24283858735
 20
1291.23848010824
 11
1828.97213383005
 21
1292.39864335381
  0
ARC
  8
0
  6
BYLAYER
 10
1833.13820342633
 20
1292.14739857067
 40
4
 50
193.134022306154
 51
270
  0
LINE
  8
0
  6
BYLAYER
 10
1828.98245713015
 20
1292.8935168332
 11
1833.507226426
 21
1309.18268629825
  0
ARC
  8
0
  6
BYLAYER
 10
1829.94597503978
 20
1292.62587296941
 40
1
 50
164.475889003736
 51
193.134022306154
  0
ARC
  8
0
  6
BYLAYER
 10
1835.43426224526
 20
1308.64739857067
 40
2
 50
90
 51
164.475889003736
  0
LINE
  8
0
  6
BYLAYER
 10
1835.91409094612
 20
1288.14739857067
 11
1833.13820342633
 21
1288.14739857067
  0
LINE
  8
0
  6
BYLAYER
 10
1835.91409094612
 20
1281.14739857067
 11
1834.11781385288
 21
1281.14739857067
  0
LINE
  8
0
  6
BYLAYER
 10
1841.91409094612
 20
1262.64739857067
 11
1838.91409094612
 21
1242.64739857067
  0
LINE
  8
0
  6
BYLAYER
 10
1838.91409094612
 20
1242.64739857067
 11
1836.91409094612
 21
1242.64739857067
  0
LINE
  8
0
  6
BYLAYER
 10
1836.91409094612
 20
1242.64739857067
 11
1839.4346552019
 21
1259.45116027592
  0
LINE
  8
0
  6
BYLAYER
 10
1841.91409094612
 20
1298.64739857067
 11
1841.61409094613
 21
1301.64739857067
  0
CIRCLE
  8
0
  6
BYLAYER
 10
1838.91409094612
 20
1293.64739857067
 40
1.1
  0
ARC
  8
0
  6
BYLAYER
 10
1850.85994949365
 20
1373.84921425058
 40
6.5
 50
14.4497382486261
 51
161.52455551792
  0
ARC
  8
0
  6
BYLAYER
 10
1850.85994949365
 20
1373.84921425058
 40
5.1
 50
18.5437820968267
 51
161.52455551792
  0
POLYLINE
  8
0
  6
BYLAYER
 10
0.0
 20
0.0
 30
0.0
 66
1
  0
VERTEX
  8
0
 10
1833.95208599733
  20
1303.98507852819
  0
VERTEX
  8
0
 10
1826.65547203996
  20
1321.91781177093
  0
VERTEX
  8
0
 10
1844.69496237422
  20
1375.90905254933
  0
SEQEND
100
AcDbEntity
  8
0
  0
POLYLINE
  8
0
  6
BYLAYER
 10
0.0
 20
0.0
 30
0.0
 66
1
  0
VERTEX
  8
0
 10
1834.82580006872
  20
1305.55243856069
  0
VERTEX
  8
0
 10
1828.14750088506
  20
1321.96555270863
  0
VERTEX
  8
0
 10
1846.02280575379
  20
1375.4653950696
  0
SEQEND
100
AcDbEntity
  8
0
  0
LINE
  8
0
  6
BYLAYER
 10
2077.41409094612
 20
1292.15032314411
 11
2064.41409094612
 21
1292.15032314411
  0
LINE
  8
0
  6
BYLAYER
 10
2077.41409094612
 20
1292.15032314411
 11
2077.41409094613
 21
1383.2325345356
  0
LINE
  8
0
  6
BYLAYER
 10
2064.41409094612
 20
1292.15032314411
 11
2064.41409094612
 21
1383.2325345356
  0
LINE
  8
0
  6
BYLAYER
 10
2077.41409094612
 20
1383.2325345356
 11
2064.4140909461
 21
1383.2325345356
  0
LINE
  8
0
  6
BYLAYER
 10
2079.91409094609
 20
1259.45116027592
 11
2077.91409094613
 21
1259.45116027592
  0
LINE
  8
0
  6
BYLAYER
 10
2063.91409094613
 20
1259.45116027591
 11
2061.91409094613
 21
1259.45116027592
  0
LINE
  8
0
  6
BYLAYER
 10
2079.9140909461
 20
1310.64739857067
 11
2079.9140909461
 21
1259.45116027592
  0
LINE
  8
0
  6
BYLAYER
 10
2061.9140909461
 20
1310.64739857067
 11
2061.91409094612
 21
1259.45116027592
  0
LINE
  8
0
  6
BYLAYER
 10
2081.4140909461
 20
1254.64739857067
 11
2077.91409094612
 21
1254.64739857067
  0
LINE
  8
0
  6
BYLAYER
 10
2063.91409094612
 20
1254.64739857067
 11
2060.4140909461
 21
1254.64739857067
  0
LINE
  8
0
  6
BYLAYER
 10
2081.4140909461
 20
1254.64739857067
 11
2081.41409094612
 21
1310.64739857067
  0
POLYLINE
  8
0
  6
BYLAYER
 10
0.0
 20
0.0
 30
0.0
 66
1
  0
VERTEX
  8
0
 10
2060.4140909461
  20
1254.64739857067
  0
VERTEX
  8
0
 10
2060.4140909461
  20
1310.64739857067
  0
SEQEND
100
AcDbEntity
  8
0
  0
LINE
  8
0
  6
BYLAYER
 10
2077.91409094612
 20
1242.64739857067
 11
2063.91409094612
 21
1242.64739857067
  0
LINE
  8
0
  6
BYLAYER
 10
2077.9140909461
 20
1310.64739857067
 11
2077.91409094612
 21
1242.64739857067
  0
LINE
  8
0
  6
BYLAYER
 10
2063.9140909461
 20
1310.64739857067
 11
2063.9140909461
 21
1242.64739857067
  0
LINE
  8
0
  6
BYLAYER
 10
2077.91409094612
 20
1281.14739857067
 11
2063.91409094612
 21
1281.14739857067
  0
LINE
  8
0
  6
BYLAYER
 10
2077.91409094612
 20
1288.14739857068
 11
2063.91409094612
 21
1288.14739857068
  0
LINE
  8
0
  6
BYLAYER
 10
2060.4140909461
 20
1310.64739857067
 11
2081.4140909461
 21
1310.64739857067
  0
LINE
  8
0
  6
BYLAYER
 10
1850.9140909461
 20
1367.47116325926
 11
2064.41409094612
 21
1367.47116325926
  0
LINE
  8
0
  6
BYLAYER
 10
2077.41409094613
 20
1367.47116325926
 11
2288.9140909461
 21
1367.47116325926
  0
ARC
  8
0
  6
BYLAYER
 10
2290.96823239855
 20
1373.84921425058
 40
6.5
 50
18.4754444816875
 51
165.550261751374
  0
ARC
  8
0
  6
BYLAYER
 10
2290.96823239855
 20
1373.84921425058
 40
5.1
 50
18.4754444816875
 51
161.456217903173
  0
POLYLINE
  8
0
  6
BYLAYER
 10
0.0
 20
0.0
 30
0.0
 66
1
  0
VERTEX
  8
0
 10
2308.90011462038
  20
1306.50178761375
  0
VERTEX
  8
0
 10
2315.17270985224
  20
1321.91781177093
  0
VERTEX
  8
0
 10
2297.13321951799
  20
1375.90905254933
  0
SEQEND
100
AcDbEntity
  8
0
  0
POLYLINE
  8
0
  6
BYLAYER
 10
0.0
 20
0.0
 30
0.0
 66
1
  0
VERTEX
  8
0
 10
2308.22086531435
  20
1308.54707957226
  0
VERTEX
  8
0
 10
2313.68068100715
  20
1321.96555270863
  0
VERTEX
  8
0
 10
2295.80537613841
  20
1375.4653950696
  0
SEQEND
100
AcDbEntity
  8
0
  0
LINE
  8
0
  6
BYLAYER
 10
2379.61409094613
 20
2258.61975253806
 11
2379.61409094613
 21
1963.61975253806
  0
ARC
  8
0
  6
BYLAYER
 10
2334.61409094613
 20
1963.61975253806
 40
45
 50
270
 51
0
  0
ARC
  8
0
  6
BYLAYER
 10
2334.61409094613
 20
2258.61975253806
 40
45
 50
0
 51
90
  0
LINE
  8
0
  6
BYLAYER
 10
2354.61409094613
 20
1963.61975253806
 11
2354.61409094613
 21
2258.61975253805
  0
ARC
  8
0
  6
BYLAYER
 10
2334.61409094613
 20
1963.61975253806
 40
20
 50
270
 51
0
  0
ARC
  8
0
  6
BYLAYER
 10
2334.61409094613
 20
2258.61975253805
 40
20
 50
0
 51
90
  0
ARC
  8
0
  6
BYLAYER
 10
2274.81409094612
 20
2291.11975253806
 40
12.5
 50
90
 51
270
  0
LINE
  8
0
  6
BYLAYER
 10
2274.81409094612
 20
2303.61975253806
 11
2334.61409094613
 21
2303.61975253806
  0
LINE
  8
0
  6
BYLAYER
 10
2274.81409094612
 20
2278.61975253806
 11
2334.61409094613
 21
2278.61975253805
  0
ARC
  8
0
  6
BYLAYER
 10
2274.81409094612
 20
1931.11975253806
 40
12.5
 50
90
 51
270
  0
LINE
  8
0
  6
BYLAYER
 10
2274.81409094612
 20
1918.61975253806
 11
2334.61409094613
 21
1918.61975253806
  0
LINE
  8
0
  6
BYLAYER
 10
2274.81409094612
 20
1943.61975253806
 11
2334.61409094613
 21
1943.61975253806
  0
CIRCLE
  8
0
  6
BYLAYER
 10
2070.91409094612
 20
2113.04778321459
 40
227
  0
CIRCLE
  8
0
  6
BYLAYER
 10
2070.91409094612
 20
2113.04778321459
 40
225.600000000006
  0
LINE
  8
0
  6
BYLAYER
 10
1841.91409094612
 20
2102.54778321459
 11
1841.91409094612
 21
2123.54778321459
  0
LINE
  8
0
  6
BYLAYER
 10
1843.91409094612
 20
2102.54778321459
 11
1843.91409094612
 21
2123.54778321459
  0
LINE
  8
0
  6
BYLAYER
 10
1828.91409094612
 20
2122.04778321457
 11
1841.91409094612
 21
2122.04778321457
  0
LINE
  8
0
  6
BYLAYER
 10
1828.91409094612
 20
2106.04778321457
 11
1841.91409094613
 21
2106.04778321457
  0
LINE
  8
0
  6
BYLAYER
 10
1828.91409094612
 20
2120.04778321457
 11
1841.91409094612
 21
2120.04778321459
  0
LINE
  8
0
  6
BYLAYER
 10
1828.91409094612
 20
2104.04778321457
 11
1841.91409094612
 21
2104.04778321457
  0
LINE
  8
0
  6
BYLAYER
 10
1843.91409094612
 20
2123.54778321459
 11
1828.91409094612
 21
2123.54778321459
  0
LINE
  8
0
  6
BYLAYER
 10
1828.91409094612
 20
2102.54778321457
 11
1828.91409094612
 21
2123.54778321457
  0
LINE
  8
0
  6
BYLAYER
 10
2081.41409094613
 20
2355.04778321459
 11
2081.41409094612
 21
2340.04778321459
  0
LINE
  8
0
  6
BYLAYER
 10
2081.41409094612
 20
2342.04778321459
 11
2060.41409094612
 21
2342.04778321459
  0
LINE
  8
0
  6
BYLAYER
 10
2081.41409094612
 20
2340.04778321459
 11
2060.41409094612
 21
2340.04778321459
  0
LINE
  8
0
  6
BYLAYER
 10
2060.41409094612
 20
2355.04778321459
 11
2060.41409094612
 21
2340.04778321459
  0
LINE
  8
0
  6
BYLAYER
 10
2060.41409094613
 20
2355.04778321459
 11
2081.41409094613
 21
2355.04778321459
  0
LINE
  8
0
  6
BYLAYER
 10
2061.91409094613
 20
2355.04778321459
 11
2061.91409094613
 21
2342.04778321459
  0
LINE
  8
0
  6
BYLAYER
 10
2077.91409094613
 20
2355.04778321459
 11
2077.91409094613
 21
2342.04778321457
  0
LINE
  8
0
  6
BYLAYER
 10
2063.91409094613
 20
2355.04778321459
 11
2063.91409094612
 21
2342.04778321459
  0
LINE
  8
0
  6
BYLAYER
 10
2079.91409094613
 20
2355.04778321459
 11
2079.91409094613
 21
2342.04778321459
  0
LINE
  8
0
  6
BYLAYER
 10
2081.41409094612
 20
1884.04778321459
 11
2060.41409094612
 21
1884.04778321459
  0
LINE
  8
0
  6
BYLAYER
 10
2081.41409094612
 20
1886.04778321459
 11
2060.41409094612
 21
1886.04778321459
  0
LINE
  8
0
  6
BYLAYER
 10
2060.41409094613
 20
1871.04778321459
 11
2081.41409094613
 21
1871.04778321459
  0
LINE
  8
0
  6
BYLAYER
 10
2061.91409094613
 20
1871.04778321459
 11
2061.91409094613
 21
1884.04778321459
  0
LINE
  8
0
  6
BYLAYER
 10
2077.91409094613
 20
1871.04778321459
 11
2077.91409094613
 21
1884.0477832146
  0
LINE
  8
0
  6
BYLAYER
 10
2063.91409094613
 20
1871.04778321459
 11
2063.91409094612
 21
1884.04778321459
  0
LINE
  8
0
  6
BYLAYER
 10
2079.91409094613
 20
1871.04778321459
 11
2079.91409094613
 21
1884.04778321459
  0
LINE
  8
0
  6
BYLAYER
 10
2060.41409094612
 20
1886.04778321459
 11
2060.41409094612
 21
1871.04778321459
  0
LINE
  8
0
  6
BYLAYER
 10
2312.91409094612
 20
2102.54778321457
 11
2297.91409094612
 21
2102.54778321459
  0
LINE
  8
0
  6
BYLAYER
 10
2299.91409094612
 20
2102.54778321459
 11
2299.91409094612
 21
2123.54778321459
  0
LINE
  8
0
  6
BYLAYER
 10
2297.91409094612
 20
2102.54778321459
 11
2297.91409094612
 21
2123.54778321459
  0
LINE
  8
0
  6
BYLAYER
 10
2299.91409094612
 20
2123.54778321459
 11
2297.91409094612
 21
2123.54778321459
  0
LINE
  8
0
  6
BYLAYER
 10
2312.91409094612
 20
2122.04778321457
 11
2299.91409094612
 21
2122.04778321457
  0
LINE
  8
0
  6
BYLAYER
 10
2312.91409094612
 20
2106.04778321457
 11
2299.9140909461
 21
2106.04778321457
  0
LINE
  8
0
  6
BYLAYER
 10
2312.91409094612
 20
2120.04778321457
 11
2299.91409094612
 21
2120.04778321459
  0
LINE
  8
0
  6
BYLAYER
 10
2312.91409094612
 20
2104.04778321457
 11
2299.91409094612
 21
2104.04778321457
  0
LINE
  8
0
  6
BYLAYER
 10
2299.91409094612
 20
2123.5477832146
 11
2312.91409094612
 21
2123.54778321459
  0
LINE
  8
0
  6
BYLAYER
 10
2312.91409094612
 20
2102.54778321457
 11
2312.91409094612
 21
2123.54778321457
  0
CIRCLE
  8
0
  6
BYLAYER
 10
2070.91409094612
 20
2113.04778321459
 40
223
  0
CIRCLE
  8
0
  6
BYLAYER
 10
2070.91409094612
 20
2113.04778321459
 40
215
  0
LINE
  8
0
  6
BYLAYER
 10
945.557731123412
 20
755.647398570673
 11
1300.55773112341
 21
755.647398570673
  0
LINE
  8
0
  6
BYLAYER
 10
945.557731123412
 20
505.647398570673
 11
1300.55773112341
 21
505.647398570673
  0
LINE
  8
0
  6
BYLAYER
 10
945.557731123412
 20
480.647398570673
 11
1300.55773112341
 21
480.647398570673
  0
ARC
  8
0
  6
BYLAYER
 10
945.557731123412
 20
768.147398570673
 40
12.5
 50
90
 51
270
  0
ARC
  8
0
  6
BYLAYER
 10
945.557731123412
 20
493.147398570673
 40
12.5
 50
90
 51
270
  0
ARC
  8
0
  6
BYLAYER
 10
1300.55773112341
 20
768.147398570673
 40
12.5
 50
270
 51
90
  0
ARC
  8
0
  6
BYLAYER
 10
1300.55773112341
 20
493.147398570673
 40
12.5
 50
270
 51
90
  0
LINE
  8
0
  6
BYLAYER
 10
933.057731123412
 20
1221.6933854815
 11
933.057731123412
 21
493.147398570673
  0
LINE
  8
0
  6
BYLAYER
 10
958.057731123412
 20
755.647398570673
 11
958.057731123412
 21
505.647398570673
  0
LINE
  8
0
  6
BYLAYER
 10
1313.05773112341
 20
1220.09184301513
 11
1313.05773112341
 21
493.147398570673
  0
LINE
  8
0
  6
BYLAYER
 10
1288.05773112341
 20
755.647398570673
 11
1288.05773112341
 21
505.647398570673
  0
LINE
  8
0
  6
BYLAYER
 10
954.857731123415
 20
455.647398570673
 11
982.857731123415
 21
455.647398570673
  0
LINE
  8
0
  6
BYLAYER
 10
954.857731123415
 20
455.647398570673
 11
952.857731123415
 21
480.647398570673
  0
LINE
  8
0
  6
BYLAYER
 10
982.857731123415
 20
455.647398570673
 11
984.857731123415
 21
480.647398570673
  0
LINE
  8
0
  6
BYLAYER
 10
1263.25773112341
 20
455.647398570673
 11
1291.25773112341
 21
455.647398570673
  0
LINE
  8
0
  6
BYLAYER
 10
1263.25773112341
 20
455.647398570673
 11
1261.25773112341
 21
480.647398570673
  0
LINE
  8
0
  6
BYLAYER
 10
1291.25773112341
 20
455.647398570673
 11
1293.25773112341
 21
480.647398570673
  0
ARC
  8
0
  6
BYLAYER
 10
1025.55773112341
 20
1372.64739857067
 40
92.5
 50
90
 51
178.250649314185
  0
LINE
  8
0
  6
BYLAYER
 10
958.057731123412
 20
780.647398570673
 11
958.057731123426
 21
966.647398570673
  0
LINE
  8
0
  6
BYLAYER
 10
958.057731123426
 20
1050.64739857067
 11
958.057731123412
 21
1207.80449659261
  0
ARC
  8
0
  6
BYLAYER
 10
1025.55773112341
 20
1372.64739857067
 40
67.5
 50
90
 51
177.602414427957
  0
LINE
  8
0
  6
BYLAYER
 10
1288.0577311234
 20
780.647398570673
 11
1288.05773112341
 21
966.647398570673
  0
LINE
  8
0
  6
BYLAYER
 10
1288.05773112343
 20
1050.64739857067
 11
1288.05773112341
 21
1206.20295412624
  0
ARC
  8
0
  6
BYLAYER
 10
1220.55773112341
 20
1372.64739857067
 40
67.5
 50
2.39758557204263
 51
90
  0
ARC
  8
0
  6
BYLAYER
 10
1220.55773112341
 20
1372.64739857067
 40
92.5
 50
1.7493506858152
 51
90
  0
LINE
  8
0
  6
BYLAYER
 10
1220.55773112341
 20
1465.14739857067
 11
1025.55773112341
 21
1465.14739857067
  0
LINE
  8
0
  6
BYLAYER
 10
1220.55773112341
 20
1440.14739857067
 11
1025.55773112341
 21
1440.14739857067
  0
LINE
  8
0
  6
BYLAYER
 10
949.057731123412
 20
1050.64739857067
 11
1046.70527544144
 21
1050.64739857067
  0
LINE
  8
0
  6
BYLAYER
 10
1199.41018680542
 20
1050.64739857067
 11
1297.05773112341
 21
1050.64739857067
  0
LINE
  8
0
  6
BYLAYER
 10
949.057731123412
 20
1050.64739857067
 11
949.057731123412
 21
966.647398570673
  0
LINE
  8
0
  6
BYLAYER
 10
1297.05773112341
 20
1050.64739857067
 11
1297.05773112341
 21
966.647398570673
  0
LINE
  8
0
  6
BYLAYER
 10
949.057731123412
 20
966.647398570673
 11
1297.05773112341
 21
966.647398570673
  0
LINE
  8
0
  6
BYLAYER
 10
964.557731123412
 20
790.447398570676
 11
964.557731123412
 21
966.647398570673
  0
ARC
  8
0
  6
BYLAYER
 10
958.557731123412
 20
790.447398570676
 40
6
 50
270
 51
0
  0
LINE
  8
0
  6
BYLAYER
 10
1281.55773112341
 20
790.447398570676
 11
1281.55773112341
 21
966.647398570673
  0
ARC
  8
0
  6
BYLAYER
 10
1287.55773112341
 20
790.447398570676
 40
6
 50
180
 51
270
  0
LINE
  8
0
  6
BYLAYER
 10
1311.55773112341
 20
780.647398570673
 11
934.557731123412
 21
780.647398570673
  0
LINE
  8
0
  6
BYLAYER
 10
1311.55773112341
 20
780.647398570673
 11
1311.55773112341
 21
784.447398570676
  0
LINE
  8
0
  6
BYLAYER
 10
934.557731123412
 20
780.647398570673
 11
934.557731123412
 21
784.447398570676
  0
LINE
  8
0
  6
BYLAYER
 10
934.557731123412
 20
784.447398570676
 11
1311.55773112341
 21
784.447398570676
  0
LINE
  8
0
  6
BYLAYER
 10
896.057731123412
 20
1300.64739857068
 11
1350.05773112341
 21
1300.64739857068
  0
LINE
  8
0
  6
BYLAYER
 10
1235.45773112341
 20
1176.98073190401
 11
1346.97158871047
 21
1238.93287500793
  0
LINE
  8
0
  6
BYLAYER
 10
1010.65773112343
 20
1174.2740764986
 11
1010.65773112343
 21
1053.04739857068
  0
LINE
  8
0
  6
BYLAYER
 10
1235.45773112341
 20
1176.98073190402
 11
1235.45773112341
 21
1053.04739857068
  0
LINE
  8
0
  6
BYLAYER
 10
978.557731123412
 20
1053.04739857068
 11
1045.62878069777
 21
1053.04739857067
  0
LINE
  8
0
  6
BYLAYER
 10
1200.48668154909
 20
1053.04739857068
 11
1267.55773112341
 21
1053.04739857068
  0
LINE
  8
0
  6
BYLAYER
 10
978.557731123412
 20
1050.64739857068
 11
978.557731123412
 21
1053.04739857068
  0
LINE
  8
0
  6
BYLAYER
 10
1267.55773112341
 20
1050.64739857068
 11
1267.55773112341
 21
1053.04739857068
  0
ARC
  8
0
  6
BYLAYER
 10
1344.0577311234
 20
1244.17781866466
 40
6
 50
299.054604098995
 51
0
  0
LINE
  8
0
  6
BYLAYER
 10
896.057731123412
 20
1310.64739857068
 11
896.057731123412
 21
1244.17781866467
  0
ARC
  8
0
  6
BYLAYER
 10
902.057731123412
 20
1244.17781866467
 40
6
 50
180
 51
240.945395901005
  0
LINE
  8
0
  6
BYLAYER
 10
1008.29168860683
 20
1178.29519996876
 11
899.143873536337
 21
1238.93287500794
  0
LINE
  8
0
  6
BYLAYER
 10
1350.05773112341
 20
1300.64739857068
 11
1350.0577311234
 21
1244.17781866466
  0
ARC
  8
0
  6
BYLAYER
 10
1006.05773112341
 20
1174.2740764986
 40
4.6
 50
0
 51
60.9453959010047
  0
LINE
  8
0
  6
BYLAYER
 10
896.057731123412
 20
1244.17781866467
 11
1348.65773112342
 21
1244.17781866467
  0
LINE
  8
0
  6
BYLAYER
 10
894.057731123412
 20
1254.64739857068
 11
894.057731123412
 21
1310.64739857068
  0
LINE
  8
0
  6
BYLAYER
 10
896.057731123412
 20
1254.64739857068
 11
894.057731123412
 21
1254.64739857068
  0
LINE
  8
0
  6
BYLAYER
 10
894.057731123426
 20
1301.64739857067
 11
889.557731123412
 21
1301.64739857068
  0
ARC
  8
0
  6
BYLAYER
 10
889.557731123412
 20
1306.14739857068
 40
4.5
 50
90
 51
270
  0
LINE
  8
0
  6
BYLAYER
 10
896.057731123412
 20
1310.64739857068
 11
887.577902422552
 21
1310.64739857068
  0
ARC
  8
0
  6
BYLAYER
 10
888.057731123412
 20
1284.64739857068
 40
3.5
 50
270
 51
90
  0
LINE
  8
0
  6
BYLAYER
 10
891.578295379197
 20
1259.45116027593
 11
884.31377161069
 21
1278.69293933947
  0
ARC
  8
0
  6
BYLAYER
 10
886.261454030176
 20
1279.14739857068
 40
2
 50
90
 51
193.13402230656
  0
LINE
  8
0
  6
BYLAYER
 10
881.386478764649
 20
1291.23848010825
 11
881.115774007343
 21
1292.39864335381
  0
ARC
  8
0
  6
BYLAYER
 10
885.281843603621
 20
1292.14739857068
 40
4
 50
193.13402230656
 51
270
  0
LINE
  8
0
  6
BYLAYER
 10
881.126097307442
 20
1292.89351683321
 11
885.650866603293
 21
1309.18268629825
  0
ARC
  8
0
  6
BYLAYER
 10
882.089615217079
 20
1292.62587296942
 40
1
 50
164.475889003335
 51
193.13402230656
  0
ARC
  8
0
  6
BYLAYER
 10
887.577902422552
 20
1308.64739857068
 40
2
 50
90
 51
164.475889003335
  0
LINE
  8
0
  6
BYLAYER
 10
888.057731123412
 20
1288.14739857068
 11
885.281843603621
 21
1288.14739857068
  0
LINE
  8
0
  6
BYLAYER
 10
888.057731123412
 20
1281.14739857068
 11
886.261454030176
 21
1281.14739857068
  0
LINE
  8
0
  6
BYLAYER
 10
894.057731123412
 20
1262.64739857068
 11
891.057731123412
 21
1242.64739857068
  0
LINE
  8
0
  6
BYLAYER
 10
891.057731123412
 20
1242.64739857068
 11
889.057731123412
 21
1242.64739857068
  0
LINE
  8
0
  6
BYLAYER
 10
889.057731123412
 20
1242.64739857068
 11
891.578295379197
 21
1259.45116027593
  0
CIRCLE
  8
0
  6
BYLAYER
 10
889.557731123412
 20
1306.14739857068
 40
1.1
  0
LINE
  8
0
  6
BYLAYER
 10
894.057731123412
 20
1298.64739857068
 11
893.757731123423
 21
1301.64739857067
  0
CIRCLE
  8
0
  6
BYLAYER
 10
891.057731123412
 20
1293.64739857068
 40
1.1
  0
LINE
  8
0
  6
BYLAYER
 10
1352.05773112341
 20
1254.64739857068
 11
1352.05773112341
 21
1310.64739857068
  0
LINE
  8
0
  6
BYLAYER
 10
1350.05773112341
 20
1254.64739857068
 11
1352.05773112341
 21
1254.64739857068
  0
LINE
  8
0
  6
BYLAYER
 10
1350.05773112341
 20
1310.64739857068
 11
1358.53755982427
 21
1310.64739857068
  0
LINE
  8
0
  6
BYLAYER
 10
1352.0577311234
 20
1301.64739857067
 11
1356.55773112341
 21
1301.64739857068
  0
ARC
  8
0
  6
BYLAYER
 10
1356.55773112341
 20
1306.14739857068
 40
4.5
 50
270
 51
90
  0
CIRCLE
  8
0
  6
BYLAYER
 10
1356.55773112341
 20
1306.14739857068
 40
1.1
  0
ARC
  8
0
  6
BYLAYER
 10
1358.05773112341
 20
1284.64739857068
 40
3.5
 50
90
 51
270
  0
LINE
  8
0
  6
BYLAYER
 10
1354.53716686763
 20
1259.45116027593
 11
1361.80169063613
 21
1278.69293933947
  0
ARC
  8
0
  6
BYLAYER
 10
1359.85400821665
 20
1279.14739857068
 40
2
 50
346.86597769344
 51
90
  0
LINE
  8
0
  6
BYLAYER
 10
1364.72898348217
 20
1291.23848010825
 11
1364.99968823948
 21
1292.39864335381
  0
ARC
  8
0
  6
BYLAYER
 10
1360.8336186432
 20
1292.14739857068
 40
4
 50
270
 51
346.86597769344
  0
LINE
  8
0
  6
BYLAYER
 10
1364.98936493938
 20
1292.89351683321
 11
1360.46459564353
 21
1309.18268629825
  0
ARC
  8
0
  6
BYLAYER
 10
1364.02584702974
 20
1292.62587296942
 40
1
 50
346.86597769344
 51
15.524110996665
  0
ARC
  8
0
  6
BYLAYER
 10
1358.53755982427
 20
1308.64739857068
 40
2
 50
15.524110996665
 51
90
  0
LINE
  8
0
  6
BYLAYER
 10
1358.05773112341
 20
1288.14739857068
 11
1360.8336186432
 21
1288.14739857068
  0
LINE
  8
0
  6
BYLAYER
 10
1358.05773112341
 20
1281.14739857068
 11
1359.85400821665
 21
1281.14739857068
  0
LINE
  8
0
  6
BYLAYER
 10
1352.05773112341
 20
1262.64739857068
 11
1355.05773112341
 21
1242.64739857068
  0
LINE
  8
0
  6
BYLAYER
 10
1355.05773112341
 20
1242.64739857068
 11
1357.05773112341
 21
1242.64739857068
  0
LINE
  8
0
  6
BYLAYER
 10
1357.05773112341
 20
1242.64739857068
 11
1354.53716686763
 21
1259.45116027593
  0
LINE
  8
0
  6
BYLAYER
 10
1352.05773112341
 20
1298.64739857068
 11
1352.3577311234
 21
1301.64739857067
  0
CIRCLE
  8
0
  6
BYLAYER
 10
1355.05773112341
 20
1293.64739857068
 40
1.1
  0
LINE
  8
0
  6
BYLAYER
 10
1116.55773112341
 20
1292.15032314412
 11
1129.55773112341
 21
1292.15032314412
  0
LINE
  8
0
  6
BYLAYER
 10
1112.55773112343
 20
1310.64739857068
 11
1133.55773112343
 21
1310.64739857068
  0
LINE
  8
0
  6
BYLAYER
 10
1114.05773112344
 20
1259.45116027593
 11
1116.0577311234
 21
1259.45116027593
  0
LINE
  8
0
  6
BYLAYER
 10
1130.0577311234
 20
1259.45116027592
 11
1132.0577311234
 21
1259.45116027593
  0
LINE
  8
0
  6
BYLAYER
 10
1114.05773112343
 20
1310.64739857068
 11
1114.05773112343
 21
1259.45116027593
  0
LINE
  8
0
  6
BYLAYER
 10
1132.05773112343
 20
1310.64739857068
 11
1132.05773112341
 21
1259.45116027593
  0
LINE
  8
0
  6
BYLAYER
 10
1112.55773112343
 20
1254.64739857068
 11
1116.05773112341
 21
1254.64739857067
  0
LINE
  8
0
  6
BYLAYER
 10
1130.05773112341
 20
1254.64739857068
 11
1133.55773112343
 21
1254.64739857068
  0
LINE
  8
0
  6
BYLAYER
 10
1112.55773112343
 20
1254.64739857068
 11
1112.55773112341
 21
1310.64739857068
  0
POLYLINE
  8
0
  6
BYLAYER
 10
0.0
 20
0.0
 30
0.0
 66
1
  0
VERTEX
  8
0
 10
1133.55773112343
  20
1254.64739857068
  0
VERTEX
  8
0
 10
1133.55773112343
  20
1310.64739857068
  0
SEQEND
100
AcDbEntity
  8
0
  0
LINE
  8
0
  6
BYLAYER
 10
1116.05773112341
 20
1242.64739857068
 11
1130.05773112341
 21
1242.64739857068
  0
LINE
  8
0
  6
BYLAYER
 10
1116.05773112343
 20
1310.64739857068
 11
1116.05773112341
 21
1242.64739857067
  0
LINE
  8
0
  6
BYLAYER
 10
1130.05773112343
 20
1310.64739857068
 11
1130.05773112343
 21
1242.64739857068
  0
LINE
  8
0
  6
BYLAYER
 10
1116.05773112341
 20
1281.14739857067
 11
1130.05773112341
 21
1281.14739857067
  0
LINE
  8
0
  6
BYLAYER
 10
1116.05773112341
 20
1288.14739857069
 11
1130.05773112341
 21
1288.14739857069
  0
LINE
  8
0
  6
BYLAYER
 10
903.057731123397
 20
1375.47116325927
 11
1116.55773112341
 21
1375.47116325926
  0
LINE
  8
0
  6
BYLAYER
 10
1129.55773112343
 20
1375.47116325927
 11
1341.0577311234
 21
1375.47116325927
  0
ARC
  8
0
  6
BYLAYER
 10
1341.0577311234
 20
1371.47116325927
 40
4
 50
270
 51
90
  0
LINE
  8
0
  6
BYLAYER
 10
907.057731123397
 20
1367.47116325927
 11
907.057731123397
 21
1355.47116325927
  0
ARC
  8
0
  6
BYLAYER
 10
903.057731123397
 20
1371.47116325927
 40
4
 50
90
 51
270
  0
LINE
  8
0
  6
BYLAYER
 10
907.057731123397
 20
1355.47116325927
 11
916.688933028145
 21
1300.64739857069
  0
LINE
  8
0
  6
BYLAYER
 10
1327.42652921864
 20
1300.64739857069
 11
1337.0577311234
 21
1355.47116325927
  0
LINE
  8
0
  6
BYLAYER
 10
1328.44184293521
 20
1300.64739857069
 11
1338.04264837971
 21
1355.29813725478
  0
LINE
  8
0
  6
BYLAYER
 10
1337.0577311234
 20
1355.47116325927
 11
1337.0577311234
 21
1367.47116325927
  0
LINE
  8
0
  6
BYLAYER
 10
1338.0577311234
 20
1355.47116325927
 11
1338.0577311234
 21
1367.47116325927
  0
ARC
  8
0
  6
BYLAYER
 10
903.003589670949
 20
1373.84921425059
 40
6.5
 50
14.4497382486261
 51
161.52455551792
  0
ARC
  8
0
  6
BYLAYER
 10
903.003589670949
 20
1373.84921425059
 40
5.1
 50
18.5437820968267
 51
161.52455551792
  0
POLYLINE
  8
0
  6
BYLAYER
 10
0.0
 20
0.0
 30
0.0
 66
1
  0
VERTEX
  8
0
 10
886.095726174626
  20
1303.9850785282
  0
VERTEX
  8
0
 10
878.799112217257
  20
1321.91781177093
  0
VERTEX
  8
0
 10
896.83860255151
  20
1375.90905254933
  0
SEQEND
100
AcDbEntity
  8
0
  0
POLYLINE
  8
0
  6
BYLAYER
 10
0.0
 20
0.0
 30
0.0
 66
1
  0
VERTEX
  8
0
 10
886.969440246019
  20
1305.5524385607
  0
VERTEX
  8
0
 10
880.291141062353
  20
1321.96555270864
  0
VERTEX
  8
0
 10
898.166445931088
  20
1375.4653950696
  0
SEQEND
100
AcDbEntity
  8
0
  0
LINE
  8
0
  6
BYLAYER
 10
903.057731123397
 20
1367.47116325927
 11
1116.55773112341
 21
1367.47116325926
  0
LINE
  8
0
  6
BYLAYER
 10
1129.55773112343
 20
1367.47116325927
 11
1341.0577311234
 21
1367.47116325927
  0
ARC
  8
0
  6
BYLAYER
 10
1343.11187257585
 20
1373.84921425059
 40
6.5
 50
18.4754444816875
 51
165.550261751374
  0
ARC
  8
0
  6
BYLAYER
 10
1343.11187257585
 20
1373.84921425059
 40
5.1
 50
18.4754444816875
 51
161.456217903173
  0
POLYLINE
  8
0
  6
BYLAYER
 10
0.0
 20
0.0
 30
0.0
 66
1
  0
VERTEX
  8
0
 10
1360.01973607217
  20
1303.9850785282
  0
VERTEX
  8
0
 10
1367.31635002954
  20
1321.91781177093
  0
VERTEX
  8
0
 10
1349.27685969528
  20
1375.90905254933
  0
SEQEND
100
AcDbEntity
  8
0
  0
POLYLINE
  8
0
  6
BYLAYER
 10
0.0
 20
0.0
 30
0.0
 66
1
  0
VERTEX
  8
0
 10
1359.14602200078
  20
1305.5524385607
  0
VERTEX
  8
0
 10
1365.82432118444
  20
1321.96555270864
  0
VERTEX
  8
0
 10
1347.94901631571
  20
1375.4653950696
  0
SEQEND
100
AcDbEntity
  8
0
  0
LINE
  8
0
  6
BYLAYER
 10
1129.55773112343
 20
1292.15032314412
 11
1129.55773112344
 21
1383.2325345356
  0
LINE
  8
0
  6
BYLAYER
 10
1116.55773112343
 20
1292.15032314412
 11
1116.55773112343
 21
1383.23253453561
  0
LINE
  8
0
  6
BYLAYER
 10
1129.55773112343
 20
1383.2325345356
 11
1116.55773112341
 21
1383.23253453561
  0
LINE
  8
中心
  6
DASHDOT
 10
1123.05773112343
 20
371.186982470576
 11
1123.05773112343
 21
1480.35689701643
  0
LINE
  8
中心
  6
DASHDOT
 10
2070.91409094613
 20
768.026405446294
 11
2070.91409094613
 21
1425.85474211353
  0
ARC
  8
0
  6
BYLAYER
 10
1123.05773112348
 20
3472.68114730966
 40
2262.03374873899
 50
267.637990307671
 51
272.362009692329
  0
ARC
  8
0
  6
BYLAYER
 10
1065.75773112342
 20
975.64739857068
 40
2
 50
90
 51
270
  0
ARC
  8
0
  6
BYLAYER
 10
1180.35773112343
 20
975.64739857068
 40
2
 50
270
 51
90
  0
LINE
  8
0
  6
BYLAYER
 10
1180.35773112343
 20
973.64739857068
 11
1065.75773112342
 21
973.64739857068
  0
LINE
  8
0
  6
BYLAYER
 10
1178.35773112344
 20
977.647398570688
 11
1178.35773112343
 21
1064.99925872304
  0
LINE
  8
0
  6
BYLAYER
 10
1065.75773112342
 20
977.647398570681
 11
1180.35773112343
 21
977.647398570681
  0
LINE
  8
0
  6
BYLAYER
 10
1067.75773112342
 20
977.647398570681
 11
1067.75773112347
 21
1064.99925872286
  0
ARC
  8
0
  6
BYLAYER
 10
1123.05773112343
 20
1074.81110939556
 40
56.1637108248688
 50
190.061252650025
 51
349.938747349975
  0
LINE
  8
0
  6
BYLAYER
 10
1067.75773112342
 20
1064.99925872308
 11
1029.8321491735
 21
1212.56927589616
  0
LINE
  8
0
  6
BYLAYER
 10
1178.35773112343
 20
1064.99925872308
 11
1216.28331307318
 21
1212.56927589615
  0
LINE
  8
0
  6
BYLAYER
 10
1067.75773112342
 20
1003.7118292762
 11
1010.65773112343
 21
1140.60349986541
  0
LINE
  8
0
  6
BYLAYER
 10
1178.35773112343
 20
1003.7118292762
 11
1235.45773112341
 21
1146.20345603444
  0
ARC
  8
0
  6
BYLAYER
 10
1796.41409094613
 20
975.647398570673
 40
2
 50
270
 51
90
  0
ARC
  8
0
  6
BYLAYER
 10
1681.81409094612
 20
975.647398570673
 40
2
 50
90
 51
270
  0
LINE
  8
0
  6
BYLAYER
 10
1681.81409094612
 20
973.647398570673
 11
1796.41409094613
 21
973.647398570673
  0
LINE
  8
0
  6
BYLAYER
 10
1683.81409094612
 20
977.647398570673
 11
1683.81409094612
 21
1016.78086625586
  0
ARC
  8
0
  6
BYLAYER
 10
1687.81409094612
 20
1016.78086625586
 40
4
 50
129.969373675878
 51
180
  0
LINE
  8
0
  6
BYLAYER
 10
1906.91409094613
 20
1205.64739857067
 11
1685.2445787702
 21
1019.8464179481
  0
LINE
  8
0
  6
BYLAYER
 10
1796.41409094613
 20
977.647398570673
 11
1796.41409094613
 21
1013.64739857067
  0
LINE
  8
0
  6
BYLAYER
 10
1773.17650650911
 20
1003.71182927619
 11
2070.91409094613
 21
1131.01389071727
  0
LINE
  8
0
  6
BYLAYER
 10
1796.41409094613
 20
977.647398570673
 11
1681.81409094612
 21
977.647398570673
  0
ARC
  8
0
  6
BYLAYER
 10
1739.11409094611
 20
2112.60018179353
 40
59.3000000000029
 50
90
 51
277.506238110437
  0
ARC
  8
0
  6
BYLAYER
 10
1739.11409094611
 20
2112.60018179353
 40
57.3000000000029
 50
90
 51
270
  0
LINE
  8
0
  6
BYLAYER
 10
1739.11409094611
 20
2055.30018179353
 11
1858.59506124826
 21
2032.29059563994
  0
LINE
  8
0
  6
BYLAYER
 10
1739.11409094611
 20
2171.90018179353
 11
1858.83687290276
 21
2193.54617358428
  0
LINE
  8
図面枠
  6
BYLAYER
 10
2059.65295110857
 20
23.6770192500671
 11
2059.65295110857
 21
94.3840899571414
  0
LINE
  8
図面枠
  6
BYLAYER
 10
30.3600218156535
 20
1437.81843339148
 11
101.06709252272
 21
1437.81843339148
  0
LINE
  8
図面枠
  6
BYLAYER
 10
2059.65295110857
 20
2710.54570611875
 11
2059.65295110857
 21
2639.83863541169
  0
LINE
  8
図面枠
  6
BYLAYER
 10
101.06709252272
 20
2639.83863541169
 11
4018.23880969444
 21
2639.83863541169
  0
LINE
  8
図面枠
  6
BYLAYER
 10
101.06709252272
 20
94.3840899571414
 11
4018.23880969434
 21
94.3840899571414
  0
POLYLINE
  8
図面枠
  6
BYLAYER
 10
0.0
 20
0.0
 30
0.0
 66
1
  0
VERTEX
  8
図面枠
 10
101.06709252272
  20
2639.83863541169
  0
VERTEX
  8
図面枠
 10
101.06709252272
  20
94.3840899571414
  0
SEQEND
100
AcDbEntity
  8
図面枠
  0
LINE
  8
図面枠
  6
BYLAYER
 10
4018.23880969434
 20
2639.83863541169
 11
4018.23880969434
 21
94.3840899570396
  0
LINE
  8
図面枠
  6
BYLAYER
 10
2886.92567838121
 20
94.3840899571414
 11
2886.92567838121
 21
801.454797027848
  0
LINE
  8
図面枠
  6
BYLAYER
 10
2886.92567838121
 20
801.454797027848
 11
4018.23880969434
 21
801.454797027848
  0
LINE
  8
図面枠
  6
BYLAYER
 10
2886.92567838121
 20
306.50530207835
 11
4018.23880969434
 21
306.50530207835
  0
LINE
  8
図面枠
  6
BYLAYER
 10
2886.92567838121
 20
447.919443492491
 11
4018.23880969434
 21
447.919443492491
  0
LINE
  8
図面枠
  6
BYLAYER
 10
2886.92567838121
 20
589.333584906632
 11
4018.23880969434
 21
589.333584906632
  0
LINE
  8
図面枠
  6
BYLAYER
 10
3452.58224403776
 20
306.50530207835
 11
3452.58224403776
 21
589.333584906632
  0
TEXT
  8
図面枠
  6
BYLAYER
 10
3035.4999431217
 20
162.528235834536
 40
70
  1
Nakamura Seifun Co.,Ltd
  7
Font_0
 72
1
 11
3437.9999431217
 21
197.528235834536
 73
2
  0
TEXT
  8
図面枠
  6
BYLAYER
 10
2914.48757342797
 20
742.988559004977
 40
33.9393939393939
  1
d
  7
Font_0
 11
2914.48757342797
 21
776.927952944371
 73
3
  0
TEXT
  8
図面枠
  6
BYLAYER
 10
2931.45727039766
 20
742.988559004977
 40
33.9393939393939
  1
r
  7
Font_0
 11
2931.45727039766
 21
776.927952944371
 73
3
  0
TEXT
  8
図面枠
  6
BYLAYER
 10
2948.42696736736
 20
742.988559004977
 40
33.9393939393939
  1
a
  7
Font_0
 11
2948.42696736736
 21
776.927952944371
 73
3
  0
TEXT
  8
図面枠
  6
BYLAYER
 10
2965.39666433706
 20
742.988559004977
 40
33.9393939393939
  1
w
  7
Font_0
 11
2965.39666433706
 21
776.927952944371
 73
3
  0
TEXT
  8
図面枠
  6
BYLAYER
 10
2982.36636130675
 20
742.988559004977
 40
33.9393939393939
  1
i
  7
Font_0
 11
2982.36636130675
 21
776.927952944371
 73
3
  0
TEXT
  8
図面枠
  6
BYLAYER
 10
2999.33605827645
 20
742.988559004977
 40
33.9393939393939
  1
n
  7
Font_0
 11
2999.33605827645
 21
776.927952944371
 73
3
  0
TEXT
  8
図面枠
  6
BYLAYER
 10
3016.30575524615
 20
742.988559004977
 40
33.9393939393939
  1
g
  7
Font_0
 11
3016.30575524615
 21
776.927952944371
 73
3
  0
TEXT
  8
図面枠
  6
BYLAYER
 10
3067.21484615524
 20
742.988559004977
 40
33.9393939393939
  1
　
  7
Font_0
 50
-270
 11
3033.27545221585
 21
742.988559004977
 73
3
  0
TEXT
  8
図面枠
  6
BYLAYER
 10
3067.21484615524
 20
742.988559004977
 40
33.9393939393939
  1
n
  7
Font_0
 11
3067.21484615524
 21
776.927952944371
 73
3
  0
TEXT
  8
図面枠
  6
BYLAYER
 10
3084.18454312494
 20
742.988559004977
 40
33.9393939393939
  1
a
  7
Font_0
 11
3084.18454312494
 21
776.927952944371
 73
3
  0
TEXT
  8
図面枠
  6
BYLAYER
 10
3101.15424009463
 20
742.988559004977
 40
33.9393939393939
  1
m
  7
Font_0
 11
3101.15424009463
 21
776.927952944371
 73
3
  0
TEXT
  8
図面枠
  6
BYLAYER
 10
3118.12393706433
 20
742.988559004977
 40
33.9393939393939
  1
e
  7
Font_0
 11
3118.12393706433
 21
776.927952944371
 73
3
  0
TEXT
  8
図面枠
  6
BYLAYER
 10
3198.03678949231
 20
543.192170765219
 40
32
  1
s
  7
Font_0
 11
3198.03678949231
 21
575.192170765219
 73
3
  0
TEXT
  8
図面枠
  6
BYLAYER
 10
3214.03678949231
 20
543.192170765219
 40
32
  1
c
  7
Font_0
 11
3214.03678949231
 21
575.192170765219
 73
3
  0
TEXT
  8
図面枠
  6
BYLAYER
 10
3230.03678949231
 20
543.192170765219
 40
32
  1
a
  7
Font_0
 11
3230.03678949231
 21
575.192170765219
 73
3
  0
TEXT
  8
図面枠
  6
BYLAYER
 10
3246.03678949231
 20
543.192170765219
 40
32
  1
l
  7
Font_0
 11
3246.03678949231
 21
575.192170765219
 73
3
  0
TEXT
  8
図面枠
  6
BYLAYER
 10
3262.03678949231
 20
543.192170765219
 40
32
  1
e
  7
Font_0
 11
3262.03678949231
 21
575.192170765219
 73
3
  0
TEXT
  8
図面枠
  6
BYLAYER
 10
3762.81247047022
 20
539.836333511482
 40
32
  1
d
  7
Font_0
 11
3762.81247047022
 21
571.836333511482
 73
3
  0
TEXT
  8
図面枠
  6
BYLAYER
 10
3778.81247047022
 20
539.836333511482
 40
32
  1
r
  7
Font_0
 11
3778.81247047022
 21
571.836333511482
 73
3
  0
TEXT
  8
図面枠
  6
BYLAYER
 10
3794.81247047022
 20
539.836333511482
 40
32
  1
a
  7
Font_0
 11
3794.81247047022
 21
571.836333511482
 73
3
  0
TEXT
  8
図面枠
  6
BYLAYER
 10
3810.81247047022
 20
539.836333511482
 40
32
  1
w
  7
Font_0
 11
3810.81247047022
 21
571.836333511482
 73
3
  0
TEXT
  8
図面枠
  6
BYLAYER
 10
3826.81247047022
 20
539.836333511482
 40
32
  1
i
  7
Font_0
 11
3826.81247047022
 21
571.836333511482
 73
3
  0
TEXT
  8
図面枠
  6
BYLAYER
 10
3842.81247047022
 20
539.836333511482
 40
32
  1
n
  7
Font_0
 11
3842.81247047022
 21
571.836333511482
 73
3
  0
TEXT
  8
図面枠
  6
BYLAYER
 10
3858.81247047022
 20
539.836333511482
 40
32
  1
g
  7
Font_0
 11
3858.81247047022
 21
571.836333511482
 73
3
  0
TEXT
  8
図面枠
  6
BYLAYER
 10
3906.81247047022
 20
539.836333511482
 40
32
  1
　
  7
Font_0
 50
-270
 11
3874.81247047022
 21
539.836333511482
 73
3
  0
TEXT
  8
図面枠
  6
BYLAYER
 10
3906.81247047022
 20
539.836333511482
 40
32
  1
n
  7
Font_0
 11
3906.81247047022
 21
571.836333511482
 73
3
  0
TEXT
  8
図面枠
  6
BYLAYER
 10
3922.81247047022
 20
539.836333511482
 40
32
  1
o
  7
Font_0
 11
3922.81247047022
 21
571.836333511482
 73
3
  0
TEXT
  8
図面枠
  6
BYLAYER
 10
3938.81247047022
 20
539.836333511482
 40
32
  1
.
  7
Font_0
 11
3938.81247047022
 21
571.836333511482
 73
3
  0
TEXT
  8
図面枠
  6
BYLAYER
 10
2915.20850666393
 20
401.778029351078
 40
32
  1
a
  7
Font_0
 11
2915.20850666393
 21
433.778029351078
 73
3
  0
TEXT
  8
図面枠
  6
BYLAYER
 10
2931.20850666393
 20
401.778029351078
 40
32
  1
p
  7
Font_0
 11
2931.20850666393
 21
433.778029351078
 73
3
  0
TEXT
  8
図面枠
  6
BYLAYER
 10
2947.20850666393
 20
401.778029351078
 40
32
  1
p
  7
Font_0
 11
2947.20850666393
 21
433.778029351078
 73
3
  0
TEXT
  8
図面枠
  6
BYLAYER
 10
2963.20850666393
 20
401.778029351078
 40
32
  1
r
  7
Font_0
 11
2963.20850666393
 21
433.778029351078
 73
3
  0
TEXT
  8
図面枠
  6
BYLAYER
 10
2979.20850666393
 20
401.778029351078
 40
32
  1
o
  7
Font_0
 11
2979.20850666393
 21
433.778029351078
 73
3
  0
TEXT
  8
図面枠
  6
BYLAYER
 10
2995.20850666393
 20
401.778029351078
 40
32
  1
v
  7
Font_0
 11
2995.20850666393
 21
433.778029351078
 73
3
  0
TEXT
  8
図面枠
  6
BYLAYER
 10
3011.20850666393
 20
401.778029351078
 40
32
  1
e
  7
Font_0
 11
3011.20850666393
 21
433.778029351078
 73
3
  0
TEXT
  8
図面枠
  6
BYLAYER
 10
3027.20850666393
 20
401.778029351078
 40
32
  1
d
  7
Font_0
 11
3027.20850666393
 21
433.778029351078
 73
3
  0
TEXT
  8
図面枠
  6
BYLAYER
 10
3198.03678949231
 20
401.778029351078
 40
32
  1
c
  7
Font_0
 11
3198.03678949231
 21
433.778029351078
 73
3
  0
TEXT
  8
図面枠
  6
BYLAYER
 10
3214.03678949231
 20
401.778029351078
 40
32
  1
h
  7
Font_0
 11
3214.03678949231
 21
433.778029351078
 73
3
  0
TEXT
  8
図面枠
  6
BYLAYER
 10
3230.03678949231
 20
401.778029351078
 40
32
  1
e
  7
Font_0
 11
3230.03678949231
 21
433.778029351078
 73
3
  0
TEXT
  8
図面枠
  6
BYLAYER
 10
3246.03678949231
 20
401.778029351078
 40
32
  1
c
  7
Font_0
 11
3246.03678949231
 21
433.778029351078
 73
3
  0
TEXT
  8
図面枠
  6
BYLAYER
 10
3262.03678949231
 20
401.778029351078
 40
32
  1
k
  7
Font_0
 11
3262.03678949231
 21
433.778029351078
 73
3
  0
TEXT
  8
図面枠
  6
BYLAYER
 10
3278.03678949231
 20
401.778029351078
 40
32
  1
e
  7
Font_0
 11
3278.03678949231
 21
433.778029351078
 73
3
  0
TEXT
  8
図面枠
  6
BYLAYER
 10
3294.03678949231
 20
401.778029351078
 40
32
  1
d
  7
Font_0
 11
3294.03678949231
 21
433.778029351078
 73
3
  0
TEXT
  8
図面枠
  6
BYLAYER
 10
3480.8650723207
 20
401.443125759038
 40
32
  1
d
  7
Font_0
 11
3480.8650723207
 21
433.443125759038
 73
3
  0
TEXT
  8
図面枠
  6
BYLAYER
 10
3496.8650723207
 20
401.443125759038
 40
32
  1
e
  7
Font_0
 11
3496.8650723207
 21
433.443125759038
 73
3
  0
TEXT
  8
図面枠
  6
BYLAYER
 10
3512.8650723207
 20
401.443125759038
 40
32
  1
s
  7
Font_0
 11
3512.8650723207
 21
433.443125759038
 73
3
  0
TEXT
  8
図面枠
  6
BYLAYER
 10
3528.8650723207
 20
401.443125759038
 40
32
  1
i
  7
Font_0
 11
3528.8650723207
 21
433.443125759038
 73
3
  0
TEXT
  8
図面枠
  6
BYLAYER
 10
3544.8650723207
 20
401.443125759038
 40
32
  1
g
  7
Font_0
 11
3544.8650723207
 21
433.443125759038
 73
3
  0
TEXT
  8
図面枠
  6
BYLAYER
 10
3560.8650723207
 20
401.443125759038
 40
32
  1
n
  7
Font_0
 11
3560.8650723207
 21
433.443125759038
 73
3
  0
TEXT
  8
図面枠
  6
BYLAYER
 10
3576.8650723207
 20
401.443125759038
 40
32
  1
e
  7
Font_0
 11
3576.8650723207
 21
433.443125759038
 73
3
  0
TEXT
  8
図面枠
  6
BYLAYER
 10
3592.8650723207
 20
401.443125759038
 40
32
  1
d
  7
Font_0
 11
3592.8650723207
 21
433.443125759038
 73
3
  0
TEXT
  8
図面枠
  6
BYLAYER
 10
3763.69335514888
 20
401.778029351078
 40
32
  1
d
  7
Font_0
 11
3763.69335514888
 21
433.778029351078
 73
3
  0
TEXT
  8
図面枠
  6
BYLAYER
 10
3779.69335514888
 20
401.778029351078
 40
32
  1
r
  7
Font_0
 11
3779.69335514888
 21
433.778029351078
 73
3
  0
TEXT
  8
図面枠
  6
BYLAYER
 10
3795.69335514888
 20
401.778029351078
 40
32
  1
a
  7
Font_0
 11
3795.69335514888
 21
433.778029351078
 73
3
  0
TEXT
  8
図面枠
  6
BYLAYER
 10
3811.69335514888
 20
401.778029351078
 40
32
  1
w
  7
Font_0
 11
3811.69335514888
 21
433.778029351078
 73
3
  0
TEXT
  8
図面枠
  6
BYLAYER
 10
3827.69335514888
 20
401.778029351078
 40
32
  1
n
  7
Font_0
 11
3827.69335514888
 21
433.778029351078
 73
3
  0
TEXT
  8
図面枠
  6
BYLAYER
 10
3480.8650723206
 20
543.192170765219
 40
32
  1
d
  7
Font_0
 11
3480.8650723206
 21
575.192170765219
 73
3
  0
TEXT
  8
図面枠
  6
BYLAYER
 10
3496.8650723206
 20
543.192170765219
 40
32
  1
a
  7
Font_0
 11
3496.8650723206
 21
575.192170765219
 73
3
  0
TEXT
  8
図面枠
  6
BYLAYER
 10
3512.8650723206
 20
543.192170765219
 40
32
  1
t
  7
Font_0
 11
3512.8650723206
 21
575.192170765219
 73
3
  0
TEXT
  8
図面枠
  6
BYLAYER
 10
3528.8650723206
 20
543.192170765219
 40
32
  1
e
  7
Font_0
 11
3528.8650723206
 21
575.192170765219
 73
3
  0
LINE
  8
図面枠
  6
BYLAYER
 10
3169.75396120947
 20
306.50530207835
 11
3169.75396120947
 21
589.333584906632
  0
LINE
  8
図面枠
  6
BYLAYER
 10
3735.41052686604
 20
306.50530207835
 11
3735.41052686604
 21
589.333584906632
  0
TEXT
  8
図面枠
  6
BYLAYER
 10
2915.20850666403
 20
540.603445639504
 40
32
  1
p
  7
Font_0
 11
2915.20850666403
 21
572.603445639504
 73
3
  0
TEXT
  8
図面枠
  6
BYLAYER
 10
2931.20850666403
 20
540.603445639504
 40
32
  1
r
  7
Font_0
 11
2931.20850666403
 21
572.603445639504
 73
3
  0
TEXT
  8
図面枠
  6
BYLAYER
 10
2947.20850666403
 20
540.603445639504
 40
32
  1
o
  7
Font_0
 11
2947.20850666403
 21
572.603445639504
 73
3
  0
TEXT
  8
図面枠
  6
BYLAYER
 10
2963.20850666403
 20
540.603445639504
 40
32
  1
j
  7
Font_0
 11
2963.20850666403
 21
572.603445639504
 73
3
  0
TEXT
  8
図面枠
  6
BYLAYER
 10
2979.20850666403
 20
540.603445639504
 40
32
  1
e
  7
Font_0
 11
2979.20850666403
 21
572.603445639504
 73
3
  0
TEXT
  8
図面枠
  6
BYLAYER
 10
2995.20850666403
 20
540.603445639504
 40
32
  1
c
  7
Font_0
 11
2995.20850666403
 21
572.603445639504
 73
3
  0
TEXT
  8
図面枠
  6
BYLAYER
 10
3011.20850666403
 20
540.603445639504
 40
32
  1
t
  7
Font_0
 11
3011.20850666403
 21
572.603445639504
 73
3
  0
TEXT
  8
図面枠
  6
BYLAYER
 10
3027.20850666403
 20
540.603445639504
 40
32
  1
i
  7
Font_0
 11
3027.20850666403
 21
572.603445639504
 73
3
  0
TEXT
  8
図面枠
  6
BYLAYER
 10
3043.20850666403
 20
540.603445639504
 40
32
  1
o
  7
Font_0
 11
3043.20850666403
 21
572.603445639504
 73
3
  0
TEXT
  8
図面枠
  6
BYLAYER
 10
3059.20850666403
 20
540.603445639504
 40
32
  1
n
  7
Font_0
 11
3059.20850666403
 21
572.603445639504
 73
3
  0
TEXT
  8
図面枠
  6
BYLAYER
 10
3116.58224403776
 20
631.394190967342
 40
48
  1
小型振動ふるい機　MS-123ＶＨ
  7
Font_0
 72
1
 11
3452.58224403776
 21
655.394190967342
 73
2
  0
LINE
  8
寸法
  6
BYLAYER
 62
1
 10
958.857731123415
 20
455.647398570674
 11
608.799112217403
 21
455.647398570673
  0
LINE
  8
寸法
  6
BYLAYER
 62
1
 10
1015.55773112341
 20
1465.14739857067
 11
608.799112217403
 21
1465.14739857067
  0
LINE
  8
寸法
  6
BYLAYER
 62
1
 10
628.799112217403
 20
475.647398570673
 11
628.799112217403
 21
1445.14739857067
  0
SOLID
  8
0
 62
1
 10
628.799112217403
 20
455.647398570673
 30
0.0
 11
632.132445550736
 21
475.647398570673
 31
0.0
 12
625.46577888407
 22
475.647398570673
 32
0.0
 13
625.46577888407
 23
475.647398570673
 33
0.0
  0
SOLID
  8
0
 62
1
 10
625.465778884069
 20
1445.14739857067
 30
0.0
 11
632.132445550736
 21
1445.14739857067
 31
0.0
 12
628.799112217403
 22
1465.14739857067
 32
0.0
 13
628.799112217403
 23
1465.14739857067
 33
0.0
  0
TEXT
  8
寸法
 62
1
  6
BYLAYER
 62
1
 10
618.799112217403
 20
928.397398570673
 40
32
  1
1010
  7
Font_0
 50
90
 72
1
 11
602.799112217403
 21
960.397398570673
 73
2
  0
LINE
  8
寸法
  6
BYLAYER
 62
1
 10
933.057731123412
 20
483.147398570673
 11
933.057731123412
 21
260.647398570673
  0
LINE
  8
寸法
  6
BYLAYER
 62
1
 10
1313.05773112341
 20
483.147398570673
 11
1313.05773112341
 21
260.647398570673
  0
LINE
  8
寸法
  6
BYLAYER
 62
1
 10
953.057731123412
 20
280.647398570673
 11
1293.05773112341
 21
280.647398570673
  0
SOLID
  8
0
 62
1
 10
933.057731123412
 20
280.647398570673
 30
0.0
 11
953.057731123412
 21
277.31406523734
 31
0.0
 12
953.057731123412
 22
283.980731904007
 32
0.0
 13
953.057731123412
 23
283.980731904007
 33
0.0
  0
SOLID
  8
0
 62
1
 10
1293.05773112341
 20
283.980731904007
 30
0.0
 11
1293.05773112341
 21
277.31406523734
 31
0.0
 12
1313.05773112341
 22
280.647398570673
 32
0.0
 13
1313.05773112341
 23
280.647398570673
 33
0.0
  0
TEXT
  8
寸法
 62
1
  6
BYLAYER
 62
1
 10
1099.05773112341
 20
290.647398570673
 40
32
  1
380
  7
Font_0
 72
1
 11
1123.05773112341
 21
306.647398570673
 73
2
  0
LINE
  8
寸法
  6
BYLAYER
 62
1
 10
944.857731123415
 20
455.647398570674
 11
758.799112217403
 21
455.647398570674
  0
LINE
  8
寸法
  6
BYLAYER
 62
1
 10
922.083874340697
 20
780.616816132189
 11
758.799112217403
 21
780.616816132189
  0
LINE
  8
寸法
  6
BYLAYER
 62
1
 10
778.799112217403
 20
475.647398570674
 11
778.799112217403
 21
760.616816132189
  0
SOLID
  8
0
 62
1
 10
778.799112217403
 20
455.647398570674
 30
0.0
 11
782.132445550737
 21
475.647398570674
 31
0.0
 12
775.46577888407
 22
475.647398570674
 32
0.0
 13
775.46577888407
 23
475.647398570674
 33
0.0
  0
SOLID
  8
0
 62
1
 10
775.46577888407
 20
760.616816132189
 30
0.0
 11
782.132445550737
 21
760.616816132189
 31
0.0
 12
778.799112217403
 22
780.616816132189
 32
0.0
 13
778.799112217403
 23
780.616816132189
 33
0.0
  0
TEXT
  8
寸法
 62
1
  6
BYLAYER
 62
1
 10
768.799112217403
 20
594.132107351431
 40
32
  1
325
  7
Font_0
 50
90
 72
1
 11
752.799112217403
 21
618.132107351431
 73
2
  0
LINE
  8
寸法
  6
BYLAYER
 62
1
 10
944.857731123415
 20
455.647398570674
 11
683.799112217403
 21
455.647398570674
  0
LINE
  8
寸法
  6
BYLAYER
 62
1
 10
899.297974582373
 20
1375.47116325926
 11
683.799112217403
 21
1375.47116325926
  0
LINE
  8
寸法
  6
BYLAYER
 62
1
 10
703.799112217403
 20
475.647398570674
 11
703.799112217403
 21
1355.47116325926
  0
SOLID
  8
0
 62
1
 10
703.799112217403
 20
455.647398570674
 30
0.0
 11
707.132445550736
 21
475.647398570674
 31
0.0
 12
700.46577888407
 22
475.647398570674
 32
0.0
 13
700.46577888407
 23
475.647398570674
 33
0.0
  0
SOLID
  8
0
 62
1
 10
700.465778884069
 20
1355.47116325926
 30
0.0
 11
707.132445550736
 21
1355.47116325926
 31
0.0
 12
703.799112217403
 22
1375.47116325926
 32
0.0
 13
703.799112217403
 23
1375.47116325926
 33
0.0
  0
TEXT
  8
寸法
 62
1
  6
BYLAYER
 62
1
 10
693.799112217403
 20
891.559280914968
 40
32
  1
920
  7
Font_0
 50
90
 72
1
 11
677.799112217403
 21
915.559280914968
 73
2
  0
LINE
  8
寸法
  6
BYLAYER
 62
1
 10
2222.03810288235
 20
2235.83383391942
 11
1919.79007900983
 21
1989.36652966763
  0
TEXT
  8
寸法
 62
1
  6
BYLAYER
 62
1
 10
2104.73568551709
 20
2157.17997095349
 40
32
  1
φ430
  7
Font_0
 50
39.1954268147871
 72
1
 11
2125.62400368856
 21
2194.85858775357
 73
2
  0
SOLID
  8
0
 62
1
 10
2219.93154472635
 20
2238.41715036277
 30
0.0
 11
2224.14466103835
 21
2233.25051747606
 31
0.0
 12
2237.53800154248
 22
2248.4731828554
 32
0.0
 13
2237.53800154248
 23
2248.4731828554
 33
0.0
  0
SOLID
  8
0
 62
1
 10
1904.2901803497
 20
1976.72718073164
 30
0.0
 11
1921.89663716582
 21
1986.78321322427
 31
0.0
 12
1917.68352085383
 22
1991.94984611098
 32
0.0
 13
1917.68352085383
 23
1991.94984611098
 33
0.0
  0
LINE
  8
寸法
  6
BYLAYER
 62
1
 10
2091.41409094613
 20
1870.60018179352
 11
2545.49926189818
 21
1870.60018179352
  0
LINE
  8
寸法
  6
BYLAYER
 62
1
 10
2089.91409094613
 20
2354.60018179352
 11
2545.49926189818
 21
2354.60018179352
  0
LINE
  8
寸法
  6
BYLAYER
 62
1
 10
2525.49926189818
 20
1890.60018179352
 11
2525.49926189818
 21
2334.60018179352
  0
SOLID
  8
0
 62
1
 10
2525.49926189818
 20
1870.60018179352
 30
0.0
 11
2528.83259523152
 21
1890.60018179352
 31
0.0
 12
2522.16592856485
 22
1890.60018179352
 32
0.0
 13
2522.16592856485
 23
1890.60018179352
 33
0.0
  0
SOLID
  8
0
 62
1
 10
2522.16592856485
 20
2334.60018179352
 30
0.0
 11
2528.83259523152
 21
2334.60018179352
 31
0.0
 12
2525.49926189818
 22
2354.60018179352
 32
0.0
 13
2525.49926189818
 23
2354.60018179352
 33
0.0
  0
TEXT
  8
寸法
 62
1
  6
BYLAYER
 62
1
 10
2515.49926189818
 20
2072.60018179352
 40
32
  1
(484)
  7
Font_0
 50
90
 72
1
 11
2499.49926189818
 21
2112.60018179352
 73
2
  0
LINE
  8
寸法
  6
BYLAYER
 62
1
 10
1679.81578023688
 20
2123.04778321458
 11
1679.81578023688
 21
2477.39436340517
  0
LINE
  8
寸法
  6
BYLAYER
 62
1
 10
2379.61409094613
 20
2268.172151117
 11
2379.61409094613
 21
2477.39436340517
  0
LINE
  8
寸法
  6
BYLAYER
 62
1
 10
1699.81578023688
 20
2457.39436340517
 11
2359.61409094613
 21
2457.39436340517
  0
SOLID
  8
0
 62
1
 10
1679.81578023688
 20
2457.39436340517
 30
0.0
 11
1699.81578023688
 21
2454.06103007183
 31
0.0
 12
1699.81578023688
 22
2460.7276967385
 32
0.0
 13
1699.81578023688
 23
2460.7276967385
 33
0.0
  0
SOLID
  8
0
 62
1
 10
2359.61409094613
 20
2460.7276967385
 30
0.0
 11
2359.61409094613
 21
2454.06103007183
 31
0.0
 12
2379.61409094613
 22
2457.39436340517
 32
0.0
 13
2379.61409094613
 23
2457.39436340517
 33
0.0
  0
TEXT
  8
寸法
 62
1
  6
BYLAYER
 62
1
 10
2005.71493559151
 20
2467.39436340517
 40
32
  1
700
  7
Font_0
 72
1
 11
2029.71493559151
 21
2483.39436340517
 73
2
  0
LINE
  8
中心
  6
BYLAYER
 10
1739.11409094611
 20
2046.94199598987
 11
1739.11409094611
 21
2178.25836759719
  0
LINE
  8
寸法
  6
BYLAYER
 62
1
 10
1903.91409094613
 20
455.647398570674
 11
1576.32190135266
 21
455.647398570674
  0
LINE
  8
寸法
  6
BYLAYER
 62
1
 10
1671.81409094613
 20
973.647398570674
 11
1576.32190135266
 21
973.647398570674
  0
LINE
  8
寸法
  6
BYLAYER
 62
1
 10
1596.32190135266
 20
475.647398570674
 11
1596.32190135266
 21
953.647398570674
  0
SOLID
  8
0
 62
1
 10
1596.32190135266
 20
455.647398570674
 30
0.0
 11
1599.65523468599
 21
475.647398570674
 31
0.0
 12
1592.98856801933
 22
475.647398570674
 32
0.0
 13
1592.98856801933
 23
475.647398570674
 33
0.0
  0
SOLID
  8
0
 62
1
 10
1592.98856801932
 20
953.647398570674
 30
0.0
 11
1599.65523468599
 21
953.647398570674
 31
0.0
 12
1596.32190135266
 22
973.647398570674
 32
0.0
 13
1596.32190135266
 23
973.647398570674
 33
0.0
  0
TEXT
  8
寸法
 62
1
  6
BYLAYER
 62
1
 10
1586.32190135266
 20
690.647398570673
 40
32
  1
518
  7
Font_0
 50
90
 72
1
 11
1570.32190135266
 21
714.647398570673
 73
2
  0
LINE
  8
寸法
  6
DASHDOT
 62
1
 10
1738.38859767887
 20
1073.73143645414
 11
1738.38859767887
 21
302.827896643426
  0
LINE
  8
寸法
  6
DASHDOT
 62
1
 10
2070.91409094613
 20
745.647398570673
 11
2070.91409094613
 21
304.765049605242
  0
LINE
  8
寸法
  6
BYLAYER
 62
1
 10
1759.11409094613
 20
324.765049605242
 11
2050.91409094613
 21
324.765049605242
  0
SOLID
  8
0
 62
1
 10
1739.11409094613
 20
324.765049605242
 30
0.0
 11
1759.11409094613
 21
321.431716271909
 31
0.0
 12
1759.11409094613
 22
328.098382938575
 32
0.0
 13
1759.11409094613
 23
328.098382938575
 33
0.0
  0
SOLID
  8
0
 62
1
 10
2050.91409094613
 20
328.098382938575
 30
0.0
 11
2050.91409094613
 21
321.431716271909
 31
0.0
 12
2070.91409094613
 22
324.765049605242
 32
0.0
 13
2070.91409094613
 23
324.765049605242
 33
0.0
  0
TEXT
  8
寸法
 62
1
  6
BYLAYER
 62
1
 10
1881.01409094613
 20
334.765049605242
 40
32
  1
332
  7
Font_0
 72
1
 11
1905.01409094613
 21
350.765049605242
 73
2
  0
TEXT
  8
0
  6
BYLAYER
 10
2870.07371756229
 20
1876.88109413866
 40
48
  1
主な仕様
  7
Font_0
  0
TEXT
  8
0
  6
BYLAYER
 10
2870.07371756229
 20
1786.88109413866
 40
48
  1
・電源　AC100V　50/60Hz　400W
  7
Font_0
  0
TEXT
  8
0
  6
BYLAYER
 10
2870.07371756229
 20
1696.88109413866
 40
48
  1
・主要部材　SUS304
  7
Font_0
  0
TEXT
  8
0
  6
BYLAYER
 10
2870.07371756229
 20
1606.88109413866
 40
48
  1
・ふるい　NW型網枠　or NF型枠
  7
Font_0
  0
LINE
  8
寸法
  6
BYLAYER
 62
1
 10
1068.05773112343
 20
967.64739857068
 11
1068.05773112343
 21
902.603767080222
  0
LINE
  8
寸法
  6
BYLAYER
 62
1
 10
1178.05773112343
 20
967.64739857068
 11
1178.05773112343
 21
902.603767080222
  0
LINE
  8
寸法
  6
BYLAYER
 62
1
 10
1088.05773112343
 20
922.603767080222
 11
1158.05773112343
 21
922.603767080222
  0
LINE
  8
寸法
  6
BYLAYER
 62
1
 10
1123.05773112343
 20
922.603767080222
 11
1147.95773112343
 21
839.603767080222
  0
LINE
  8
寸法
  6
BYLAYER
 62
1
 10
1147.95773112343
 20
839.603767080222
 11
1258.62439779009
 21
839.603767080222
  0
TEXT
  8
寸法
 62
1
  6
BYLAYER
 62
1
 10
1163.29106445676
 20
849.603767080222
 40
32
  1
φ110
  7
Font_0
 72
1
 11
1203.29106445676
 21
865.603767080222
 73
2
  0
SOLID
  8
0
 62
1
 10
1068.05773112343
 20
922.603767080222
 30
0.0
 11
1088.05773112343
 21
919.270433746889
 31
0.0
 12
1088.05773112343
 22
925.937100413556
 32
0.0
 13
1088.05773112343
 23
925.937100413556
 33
0.0
  0
SOLID
  8
0
 62
1
 10
1158.05773112343
 20
925.937100413556
 30
0.0
 11
1158.05773112343
 21
919.270433746889
 31
0.0
 12
1178.05773112343
 22
922.603767080222
 32
0.0
 13
1178.05773112343
 23
922.603767080222
 33
0.0
  0
LINE
  8
0
  6
BYLAYER
 10
904.057731123426
 20
2335.80035018544
 11
1342.05773112343
 21
2335.80035018544
  0
ARC
  8
0
  6
BYLAYER
 10
1342.05773112343
 20
2331.80035018544
 40
4
 50
270
 51
90
  0
LINE
  8
0
  6
BYLAYER
 10
908.057731123441
 20
2327.80035018544
 11
908.057731123426
 21
2315.80035018544
  0
LINE
  8
0
  6
BYLAYER
 10
921.057731123426
 20
2207.80035018543
 11
921.057731123426
 21
2241.80035018544
  0
LINE
  8
0
  6
BYLAYER
 10
1325.05773112341
 20
2207.80035018544
 11
1325.05773112343
 21
2241.80035018544
  0
LINE
  8
0
  6
BYLAYER
 10
1326.05773112343
 20
2207.80035018544
 11
1326.05773112343
 21
2241.80035018544
  0
LINE
  8
0
  6
BYLAYER
 10
1346.05773112343
 20
2205.80035018543
 11
1346.05773112343
 21
2201.80035018544
  0
ARC
  8
0
  6
BYLAYER
 10
1344.05773112343
 20
2205.80035018543
 40
2
 50
0
 51
90
  0
ARC
  8
0
  6
BYLAYER
 10
904.057731123426
 20
2331.80035018544
 40
4
 50
90
 51
270
  0
LINE
  8
0
  6
BYLAYER
 10
921.057731123426
 20
2241.80035018544
 11
1325.05773112343
 21
2241.80035018544
  0
LINE
  8
0
  6
BYLAYER
 10
908.057731123426
 20
2315.80035018544
 11
921.057731123426
 21
2241.80035018544
  0
LINE
  8
0
  6
BYLAYER
 10
1326.04264837974
 20
2241.62732418095
 11
1339.04264837974
 21
2315.62732418095
  0
LINE
  8
0
  6
BYLAYER
 10
1347.05773112341
 20
2201.80035018543
 11
900.057731123441
 21
2201.80035018544
  0
LINE
  8
0
  6
BYLAYER
 10
1345.05773112343
 20
2201.80035018545
 11
1346.05773112343
 21
2201.80035018544
  0
LINE
  8
0
  6
BYLAYER
 10
900.057731123426
 20
2207.80035018542
 11
1344.05773112343
 21
2207.80035018543
  0
LINE
  8
0
  6
BYLAYER
 10
900.057731123426
 20
2207.80035018543
 11
900.057731123426
 21
2201.80035018544
  0
LINE
  8
0
  6
BYLAYER
 10
1339.05773112343
 20
2315.80035018544
 11
1339.05773112344
 21
2327.80035018544
  0
LINE
  8
中心
  6
BYLAYER
 10
1123.05773112343
 20
2350.90657620969
 11
1123.05773112343
 21
2185.0159193144
  0
LINE
  8
0
  6
BYLAYER
 10
901.057731123412
 20
2201.80035018544
 11
901.057731123412
 21
2199.80035018544
  0
LINE
  8
0
  6
BYLAYER
 10
1347.05773112341
 20
2201.80035018542
 11
1347.05773112343
 21
2199.80035018542
  0
LINE
  8
0
  6
BYLAYER
 10
1347.05773112341
 20
2199.80035018543
 11
901.057731123426
 21
2199.80035018544
  0
ARC
  8
0
  6
BYLAYER
 10
904.557731123426
 20
1979.85477236461
 40
3.5
 50
90
 51
270
  0
ARC
  8
0
  6
BYLAYER
 10
1341.55773112343
 20
1979.85477236461
 40
3.5
 50
270
 51
90
  0
LINE
  8
0
  6
BYLAYER
 10
904.557731123426
 20
1983.35477236461
 11
1341.55773112343
 21
1983.35477236461
  0
LINE
  8
0
  6
BYLAYER
 10
904.557731123426
 20
1976.35477236461
 11
1341.55773112343
 21
1976.35477236461
  0
LINE
  8
0
  6
BYLAYER
 10
908.057731123426
 20
1976.3547723646
 11
908.057731123441
 21
1874.35477236461
  0
LINE
  8
0
  6
BYLAYER
 10
907.057731123426
 20
1976.3547723646
 11
907.057731123441
 21
1874.35477236461
  0
LINE
  8
0
  6
BYLAYER
 10
910.057731123412
 20
1843.35477236461
 11
1336.05773112344
 21
1843.35477236461
  0
LINE
  8
0
  6
BYLAYER
 10
901.807731123412
 20
1874.35477236461
 11
1344.30773112344
 21
1874.35477236461
  0
ARC
  8
0
  6
BYLAYER
 10
901.807731123412
 20
1872.60477236461
 40
1.75
 50
90
 51
270
  0
LINE
  8
0
  6
BYLAYER
 10
901.807731123412
 20
1870.85477236461
 11
1344.30773112344
 21
1870.85477236461
  0
LINE
  8
0
  6
BYLAYER
 10
910.057731123412
 20
1870.85477236461
 11
910.057731123412
 21
1843.35477236461
  0
LINE
  8
0
  6
BYLAYER
 10
911.057731123412
 20
1870.85477236461
 11
911.057731123412
 21
1843.35477236461
  0
LINE
  8
0
  6
BYLAYER
 10
1338.05773112343
 20
1976.3547723646
 11
1338.05773112341
 21
1874.35477236461
  0
LINE
  8
0
  6
BYLAYER
 10
1339.05773112341
 20
1976.35477236461
 11
1339.05773112341
 21
1874.35477236461
  0
LINE
  8
0
  6
BYLAYER
 10
1336.05773112344
 20
1870.85477236461
 11
1336.05773112344
 21
1843.35477236461
  0
LINE
  8
0
  6
BYLAYER
 10
1335.05773112344
 20
1870.85477236461
 11
1335.05773112344
 21
1843.35477236461
  0
ARC
  8
0
  6
BYLAYER
 10
1344.30773112344
 20
1872.60477236461
 40
1.75
 50
270
 51
90
  0
LINE
  8
0
  6
BYLAYER
 10
904.057731123426
 20
2327.80035018544
 11
1342.05773112343
 21
2327.80035018544
  0
TEXT
  8
0
  6
BYLAYER
 10
404.001739833042
 20
1934.89278669783
 40
48
  1
ＮＦ型枠
  7
Font_0
  0
TEXT
  8
0
  6
BYLAYER
 10
405.561463258698
 20
2291.44628973755
 40
48
  1
ＮＷ型枠
  7
Font_0
  0
LINE
  8
中心
  6
BYLAYER
 10
1123.05773112343
 20
1992.8654483839
 11
1123.05773112343
 21
1826.9747914886
  0
LINE
  8
寸法
  6
BYLAYER
 62
1
 10
908.057731123426
 20
1986.3547723646
 11
908.057731123426
 21
2087.01848777602
  0
LINE
  8
寸法
  6
BYLAYER
 62
1
 10
1338.05773112343
 20
1986.35477236461
 11
1338.05773112343
 21
2087.01848777602
  0
LINE
  8
寸法
  6
BYLAYER
 62
1
 10
928.057731123426
 20
2067.01848777602
 11
1318.05773112343
 21
2067.01848777602
  0
SOLID
  8
0
 62
1
 10
908.057731123426
 20
2067.01848777602
 30
0.0
 11
928.057731123426
 21
2063.68515444269
 31
0.0
 12
928.057731123426
 22
2070.35182110936
 32
0.0
 13
928.057731123426
 23
2070.35182110936
 33
0.0
  0
SOLID
  8
0
 62
1
 10
1318.05773112343
 20
2070.35182110936
 30
0.0
 11
1318.05773112343
 21
2063.68515444269
 31
0.0
 12
1338.05773112343
 22
2067.01848777602
 32
0.0
 13
1338.05773112343
 23
2067.01848777602
 33
0.0
  0
TEXT
  8
寸法
 62
1
  6
BYLAYER
 62
1
 10
1083.05773112343
 20
2077.01848777602
 40
32
  1
φ441
  7
Font_0
 72
1
 11
1123.05773112343
 21
2093.01848777602
 73
2
  0
TEXT
  8
0
  6
BYLAYER
 10
343.873845722617
 20
2231.44628973755
 40
48
  1
（網の張替可能）
  7
Font_0
  0
TEXT
  8
0
  6
BYLAYER
 10
295.828860787989
 20
1876.72686569032
 40
48
  1
（網の張替不可能）
  7
Font_0
  0
LINE
  8
寸法
  6
BYLAYER
 62
1
 10
908.057731123426
 20
2338.80035018543
 11
908.057731123426
 21
2439.46406559685
  0
LINE
  8
寸法
  6
BYLAYER
 62
1
 10
1338.05773112343
 20
2338.80035018544
 11
1338.05773112343
 21
2439.46406559685
  0
LINE
  8
寸法
  6
BYLAYER
 62
1
 10
928.057731123426
 20
2419.46406559685
 11
1318.05773112343
 21
2419.46406559685
  0
SOLID
  8
0
 62
1
 10
908.057731123426
 20
2419.46406559685
 30
0.0
 11
928.057731123426
 21
2416.13073226352
 31
0.0
 12
928.057731123426
 22
2422.79739893018
 32
0.0
 13
928.057731123426
 23
2422.79739893018
 33
0.0
  0
SOLID
  8
0
 62
1
 10
1318.05773112343
 20
2422.79739893018
 30
0.0
 11
1318.05773112343
 21
2416.13073226352
 31
0.0
 12
1338.05773112343
 22
2419.46406559685
 32
0.0
 13
1338.05773112343
 23
2419.46406559685
 33
0.0
  0
TEXT
  8
寸法
 62
1
  6
BYLAYER
 62
1
 10
1083.05773112343
 20
2429.46406559685
 40
32
  1
φ430
  7
Font_0
 72
1
 11
1123.05773112343
 21
2445.46406559685
 73
2
  0
LINE
  8
0
  6
BYLAYER
 10
2081.41409094612
 20
1886.04778321459
 11
2081.41409094613
 21
1871.04778321459
  0
LINE
  8
0
  6
BYLAYER
 10
1843.91409094612
 20
2102.54778321459
 11
1828.91409094612
 21
2102.54778321457
  0
CIRCLE
  8
0
  6
BYLAYER
 10
2976.23301686919
 20
495.332831181576
 40
22.1577000694349
  0
CIRCLE
  8
0
  6
BYLAYER
 10
2976.23301686919
 20
495.332831181576
 40
11.8948423500628
  0
LINE
  8
中心
  6
BYLAYER
 10
3075.70093292775
 20
495.332831181576
 11
2947.84767860041
 21
495.332831181576
  0
LINE
  8
中心
  6
BYLAYER
 10
2976.23301686919
 20
466.947492912795
 11
2976.23301686919
 21
523.718169450357
  0
LINE
  8
0
  6
BYLAYER
 10
3018.96685059232
 20
507.332831181576
 11
3066.96685059232
 21
519.332831181576
  0
LINE
  8
0
  6
BYLAYER
 10
3018.96685059232
 20
483.332831181576
 11
3066.96685059232
 21
471.332831181576
  0
LINE
  8
0
  6
BYLAYER
 10
3066.96685059232
 20
471.332831181576
 11
3066.96685059232
 21
519.332831181576
  0
LINE
  8
0
  6
BYLAYER
 10
3018.96685059232
 20
507.332831181576
 11
3018.96685059232
 21
483.332831181576
  0
TEXT
  8
図面枠
  6
BYLAYER
 10
3288.56696605367
 20
475.249809984843
 40
32
  1
Free
  7
Font_0
 72
1
 11
3320.56696605367
 21
491.249809984843
 73
2
  0
TEXT
  8
図面枠
  6
BYLAYER
 10
3531.39524888194
 20
475.249809984843
 40
32
  1
2016.12.3
  7
Font_0
 72
1
 11
3603.39524888194
 21
491.249809984843
 73
2
  0
TEXT
  8
図面枠
  6
BYLAYER
 10
3822.22353171024
 20
475.249809984843
 40
32
  1
NKS16001
  7
Font_0
 72
1
 11
3886.22353171024
 21
491.249809984843
 73
2
  0
TEXT
  8
図面枠
  6
BYLAYER
 10
3862.22353171025
 20
333.835668570701
 40
32
  1
Y.K
  7
Font_0
 72
1
 11
3886.22353171025
 21
349.835668570701
 73
2
  0
TEXT
  8
図面枠
  6
BYLAYER
 10
3296.56696605368
 20
333.835668570701
 40
32
  1
K.N
  7
Font_0
 72
1
 11
3320.56696605368
 21
349.835668570701
 73
2
  0
TEXT
  8
図面枠
  6
BYLAYER
 10
3013.73868322539
 20
333.835668570701
 40
32
  1
K.N
  7
Font_0
 72
1
 11
3037.73868322539
 21
349.835668570701
 73
2
  0
TEXT
  8
図面枠
  6
BYLAYER
 10
3579.39524888195
 20
333.835668570701
 40
32
  1
T.K
  7
Font_0
 72
1
 11
3603.39524888195
 21
349.835668570701
 73
2
  0
TEXT
  8
0
  6
BYLAYER
 10
2870.07371756229
 20
1516.88109413865
 40
48
  1
・重量　50kg
  7
Font_0
  0
TEXT
  8
0
  6
BYLAYER
 10
993.659391022262
 20
1716.51231107478
 40
48
  1
ふるい種類
  7
Font_0
  0
LINE
  8
0
  6
BYLAYER
 10
982.688834022239
 20
1704.12677754583
 11
1285.11725175716
 21
1704.12677754583
  0
LINE
  8
0
  6
BYLAYER
 10
983.102643627764
 20
1697.47460601705
 11
1283.78593474845
 21
1697.47460601705
  0
LINE
  8
0
  6
CONTINUOUS
 62
7
 10
1844.25808546941
 20
1243.52466743911
 11
2287.2769416056
 21
1243.52466743911
  0
LINE
  8
0
  6
CONTINUOUS
 62
1
 10
908.678722912198
 20
2336.11606481242
 11
799.832532562884
 21
2336.39747125733
  0
LINE
  8
0
  6
CONTINUOUS
 62
1
 10
809.276157364684
 20
2335.0556320208
 11
809.276157364684
 21
2199.0556320208
  0
POLYLINE
  8
0
 62
1
  6
CONTINUOUS
 10
0.0
 20
0.0
 30
0.0
 66
1
 70
     1
  0
VERTEX
  8
0
 10
809.276157364684
  20
2335.0556320208
  0
VERTEX
  8
0
 10
810.182024022543
  20
2331.67489162879
  0
VERTEX
  8
0
 10
808.370290706825
  20
2331.67489162879
  0
SEQEND
100
AcDbEntity
  8
0
  0
POLYLINE
  8
0
 62
1
  6
CONTINUOUS
 10
0.0
 20
0.0
 30
0.0
 66
1
 70
     1
  0
VERTEX
  8
0
 10
809.276157364684
  20
2199.0556320208
  0
VERTEX
  8
0
 10
808.370290706825
  20
2202.43637241281
  0
VERTEX
  8
0
 10
810.182024022543
  20
2202.43637241281
  0
SEQEND
100
AcDbEntity
  8
0
  0
TEXT
  8
0
 62
1
  6
CONTINUOUS
 62
1
 10
804.690450074843
 20
2248.91326760507
 40
25.2
  1
138
  7
Font_0
 50
89.7906047076273
 72
1
 11
804.759522565866
 21
2267.81314138748
  0
LINE
  8
0
  6
CONTINUOUS
 62
1
 10
800.624400158821
 20
2199.27587041657
 11
902.872651677361
 21
2199.1607495982
  0
LINE
  8
0
  6
CONTINUOUS
 62
1
 10
790.631058324871
 20
1983.35477236461
 11
901.843776872479
 21
1983.35477236461
  0
LINE
  8
0
  6
CONTINUOUS
 62
1
 10
800.499112845811
 20
1983.75082295818
 11
800.499112845811
 21
1843.75082295818
  0
POLYLINE
  8
0
 62
1
  6
CONTINUOUS
 10
0.0
 20
0.0
 30
0.0
 66
1
 70
     1
  0
VERTEX
  8
0
 10
800.499112845811
  20
1983.75082295818
  0
VERTEX
  8
0
 10
801.404979503669
  20
1980.37008256617
  0
VERTEX
  8
0
 10
799.593246187952
  20
1980.37008256617
  0
SEQEND
100
AcDbEntity
  8
0
  0
POLYLINE
  8
0
 62
1
  6
CONTINUOUS
 10
0.0
 20
0.0
 30
0.0
 66
1
 70
     1
  0
VERTEX
  8
0
 10
800.499112845811
  20
1843.75082295818
  0
VERTEX
  8
0
 10
799.593246187952
  20
1847.13156335019
  0
VERTEX
  8
0
 10
801.404979503669
  20
1847.13156335019
  0
SEQEND
100
AcDbEntity
  8
0
  0
TEXT
  8
0
 62
1
  6
CONTINUOUS
 62
1
 10
795.721109400356
 20
1897.74506034336
 40
25.2
  1
141
  7
Font_0
 50
90
 72
1
 11
795.721109400356
 21
1916.64506034336
  0
LINE
  8
0
  6
CONTINUOUS
 62
1
 10
791.560332417867
 20
1842.76423175199
 11
908.880659018275
 21
1842.76423175199
  0
TEXT
  8
0
 62
7
  6
CONTINUOUS
 62
7
 10
174.882538902302
 20
151.554923448366
 40
35
 41
1.2
  1
※　上記の寸法は予告なく変更される場合がありますので予めご了承ください。
  7
Font_0
  0
ENDSEC
  0
EOF
