999
Outputted By AR_CAD Ver.1.5.0d
  0
SECTION
  2
HEADER
  9
$ACADVER
  1
AC1009
  9
$DWGCODEPAGE
  3
DOS932
  9
$EXTMIN
 10
0
 20
0
  9
$EXTMAX
 10
4158
 20
2940
  9
$INSBASE
 10
0.0
 20
0.0
 30
0.0
  9
$HANDLING
 70
     1
  9
$LTSCALE
 40
1
  0
ENDSEC
  0
SECTION
  2
TABLES
  0
TABLE
  2
LTYPE
 70
     10
  0
LTYPE
  2
BYBLOCK
 70
    64
 3

 72
    65
 73
    0
 40
    0
  0
LTYPE
  2
BYLAYER
 70
    64
 3

 72
    65
 73
    0
 40
    0
  0
LTYPE
  2
CONTINUOUS
 70
    64
 3
CONTINUOUS
 72
    65
 73
    0
 40
    0
  0
LTYPE
  2
DASHED
 70
    64
 3

 72
    65
 73
    2
 40
    3.5
 49
    2.917
 49
    -0.583
  0
LTYPE
  2
DOT
 70
    64
 3

 72
    65
 73
    2
 40
    0.5
 49
    0.25
 49
    -0.25
  0
LTYPE
  2
DASHDOT
 70
    64
 3

 72
    65
 73
    4
 40
    3.5
 49
    1.841
 49
    -0.553
 49
    0.553
 49
    -0.553
  0
LTYPE
  2
DIVIDE
 70
    64
 3

 72
    65
 73
    6
 40
    3.5
 49
    1.4
 49
    -0.42
 49
    0.42
 49
    -0.42
 49
    0.42
 49
    -0.42
  0
LTYPE
  2
HIDDEN
 70
    64
 3

 72
    65
 73
    2
 40
    4
 49
    2
 49
    -2
  0
LTYPE
  2
CENTER
 70
    64
 3

 72
    65
 73
    4
 40
    50.8
 49
    31.75
 49
    -6.35
 49
    6.35
 49
    -6.35
  0
LTYPE
  2
CENTER2
 70
    64
 3

 72
    65
 73
    4
 40
    28.575
 49
    19.05
 49
    -3.175
 49
    3.175
 49
    -3.175
  0
LTYPE
  2
CENTERX2
 70
    64
 3

 72
    65
 73
    4
 40
    101.6
 49
    63.5
 49
    -12.7
 49
    12.7
 49
    -12.7
  0
ENDTAB
  0
TABLE
  2
LAYER
 70
   257
  0
LAYER
  2
0
 70
    0
 62
7
  6
CONTINUOUS
  0
LAYER
  2
寸法
 70
    0
 62
1
  6
CONTINUOUS
  0
LAYER
  2
中心
 70
    0
 62
1
  6
CONTINUOUS
  0
LAYER
  2
DEFPOINTS
 70
    0
 62
7
  6
CONTINUOUS
  0
LAYER
  2
図面枠
 70
    0
 62
7
  6
CONTINUOUS
  0
LAYER
  2
寸法___10
 70
    0
 62
1
  6
CONTINUOUS
  0
LAYER
  2
画層6
 70
    0
 62
7
  6
CONTINUOUS
  0
LAYER
  2
画層7
 70
    0
 62
51
  6
CONTINUOUS
  0
LAYER
  2
画層8
 70
    0
 62
61
  6
CONTINUOUS
  0
LAYER
  2
画層9
 70
    0
 62
111
  6
CONTINUOUS
  0
LAYER
  2
画層10
 70
    0
 62
91
  6
CONTINUOUS
  0
LAYER
  2
画層11
 70
    0
 62
131
  6
CONTINUOUS
  0
LAYER
  2
画層12
 70
    0
 62
161
  6
CONTINUOUS
  0
LAYER
  2
画層13
 70
    0
 62
5
  6
CONTINUOUS
  0
LAYER
  2
画層14
 70
    0
 62
7
  6
CONTINUOUS
  0
LAYER
  2
画層15
 70
    0
 62
11
  6
CONTINUOUS
  0
LAYER
  2
画層16
 70
    0
 62
7
  6
CONTINUOUS
  0
LAYER
  2
画層17
 70
    0
 62
70
  6
CONTINUOUS
  0
LAYER
  2
画層18
 70
    0
 62
211
  6
CONTINUOUS
  0
LAYER
  2
画層19
 70
    0
 62
137
  6
CONTINUOUS
  0
LAYER
  2
画層20
 70
    0
 62
4
  6
CONTINUOUS
  0
LAYER
  2
画層21
 70
    0
 62
131
  6
CONTINUOUS
  0
LAYER
  2
画層22
 70
    0
 62
4
  6
CONTINUOUS
  0
LAYER
  2
画層23
 70
    0
 62
4
  6
CONTINUOUS
  0
LAYER
  2
画層24
 70
    0
 62
7
  6
CONTINUOUS
  0
LAYER
  2
画層25
 70
    0
 62
7
  6
CONTINUOUS
  0
LAYER
  2
画層26
 70
    0
 62
7
  6
CONTINUOUS
  0
LAYER
  2
画層27
 70
    0
 62
7
  6
CONTINUOUS
  0
LAYER
  2
画層28
 70
    0
 62
7
  6
CONTINUOUS
  0
LAYER
  2
画層29
 70
    0
 62
7
  6
CONTINUOUS
  0
LAYER
  2
画層30
 70
    0
 62
7
  6
CONTINUOUS
  0
LAYER
  2
画層31
 70
    0
 62
7
  6
CONTINUOUS
  0
LAYER
  2
画層32
 70
    0
 62
7
  6
CONTINUOUS
  0
LAYER
  2
画層33
 70
    0
 62
7
  6
CONTINUOUS
  0
LAYER
  2
画層34
 70
    0
 62
7
  6
CONTINUOUS
  0
LAYER
  2
画層35
 70
    0
 62
7
  6
CONTINUOUS
  0
LAYER
  2
画層36
 70
    0
 62
7
  6
CONTINUOUS
  0
LAYER
  2
画層37
 70
    0
 62
7
  6
CONTINUOUS
  0
LAYER
  2
画層38
 70
    0
 62
7
  6
CONTINUOUS
  0
LAYER
  2
画層39
 70
    0
 62
7
  6
CONTINUOUS
  0
LAYER
  2
画層40
 70
    0
 62
7
  6
CONTINUOUS
  0
LAYER
  2
画層41
 70
    0
 62
7
  6
CONTINUOUS
  0
LAYER
  2
画層42
 70
    0
 62
7
  6
CONTINUOUS
  0
LAYER
  2
画層43
 70
    0
 62
7
  6
CONTINUOUS
  0
LAYER
  2
画層44
 70
    0
 62
7
  6
CONTINUOUS
  0
LAYER
  2
画層45
 70
    0
 62
7
  6
CONTINUOUS
  0
LAYER
  2
画層46
 70
    0
 62
7
  6
CONTINUOUS
  0
LAYER
  2
画層47
 70
    0
 62
7
  6
CONTINUOUS
  0
LAYER
  2
画層48
 70
    0
 62
7
  6
CONTINUOUS
  0
LAYER
  2
画層49
 70
    0
 62
7
  6
CONTINUOUS
  0
LAYER
  2
画層50
 70
    0
 62
7
  6
CONTINUOUS
  0
LAYER
  2
画層51
 70
    0
 62
7
  6
CONTINUOUS
  0
LAYER
  2
画層52
 70
    0
 62
7
  6
CONTINUOUS
  0
LAYER
  2
画層53
 70
    0
 62
7
  6
CONTINUOUS
  0
LAYER
  2
画層54
 70
    0
 62
7
  6
CONTINUOUS
  0
LAYER
  2
画層55
 70
    0
 62
7
  6
CONTINUOUS
  0
LAYER
  2
画層56
 70
    0
 62
7
  6
CONTINUOUS
  0
LAYER
  2
画層57
 70
    0
 62
7
  6
CONTINUOUS
  0
LAYER
  2
画層58
 70
    0
 62
7
  6
CONTINUOUS
  0
LAYER
  2
画層59
 70
    0
 62
7
  6
CONTINUOUS
  0
LAYER
  2
画層60
 70
    0
 62
7
  6
CONTINUOUS
  0
LAYER
  2
画層61
 70
    0
 62
7
  6
CONTINUOUS
  0
LAYER
  2
画層62
 70
    0
 62
7
  6
CONTINUOUS
  0
LAYER
  2
画層63
 70
    0
 62
7
  6
CONTINUOUS
  0
LAYER
  2
画層64
 70
    0
 62
7
  6
CONTINUOUS
  0
LAYER
  2
画層65
 70
    0
 62
7
  6
CONTINUOUS
  0
LAYER
  2
画層66
 70
    0
 62
7
  6
CONTINUOUS
  0
LAYER
  2
画層67
 70
    0
 62
7
  6
CONTINUOUS
  0
LAYER
  2
画層68
 70
    0
 62
7
  6
CONTINUOUS
  0
LAYER
  2
画層69
 70
    0
 62
7
  6
CONTINUOUS
  0
LAYER
  2
画層70
 70
    0
 62
7
  6
CONTINUOUS
  0
LAYER
  2
画層71
 70
    0
 62
7
  6
CONTINUOUS
  0
LAYER
  2
画層72
 70
    0
 62
7
  6
CONTINUOUS
  0
LAYER
  2
画層73
 70
    0
 62
7
  6
CONTINUOUS
  0
LAYER
  2
画層74
 70
    0
 62
7
  6
CONTINUOUS
  0
LAYER
  2
画層75
 70
    0
 62
7
  6
CONTINUOUS
  0
LAYER
  2
画層76
 70
    0
 62
7
  6
CONTINUOUS
  0
LAYER
  2
画層77
 70
    0
 62
7
  6
CONTINUOUS
  0
LAYER
  2
画層78
 70
    0
 62
7
  6
CONTINUOUS
  0
LAYER
  2
画層79
 70
    0
 62
7
  6
CONTINUOUS
  0
LAYER
  2
画層80
 70
    0
 62
7
  6
CONTINUOUS
  0
LAYER
  2
画層81
 70
    0
 62
7
  6
CONTINUOUS
  0
LAYER
  2
画層82
 70
    0
 62
7
  6
CONTINUOUS
  0
LAYER
  2
画層83
 70
    0
 62
7
  6
CONTINUOUS
  0
LAYER
  2
画層84
 70
    0
 62
7
  6
CONTINUOUS
  0
LAYER
  2
画層85
 70
    0
 62
7
  6
CONTINUOUS
  0
LAYER
  2
画層86
 70
    0
 62
7
  6
CONTINUOUS
  0
LAYER
  2
画層87
 70
    0
 62
7
  6
CONTINUOUS
  0
LAYER
  2
画層88
 70
    0
 62
7
  6
CONTINUOUS
  0
LAYER
  2
画層89
 70
    0
 62
7
  6
CONTINUOUS
  0
LAYER
  2
画層90
 70
    0
 62
7
  6
CONTINUOUS
  0
LAYER
  2
画層91
 70
    0
 62
7
  6
CONTINUOUS
  0
LAYER
  2
画層92
 70
    0
 62
7
  6
CONTINUOUS
  0
LAYER
  2
画層93
 70
    0
 62
7
  6
CONTINUOUS
  0
LAYER
  2
画層94
 70
    0
 62
7
  6
CONTINUOUS
  0
LAYER
  2
画層95
 70
    0
 62
7
  6
CONTINUOUS
  0
LAYER
  2
画層96
 70
    0
 62
7
  6
CONTINUOUS
  0
LAYER
  2
画層97
 70
    0
 62
7
  6
CONTINUOUS
  0
LAYER
  2
画層98
 70
    0
 62
7
  6
CONTINUOUS
  0
LAYER
  2
画層99
 70
    0
 62
7
  6
CONTINUOUS
  0
LAYER
  2
画層100
 70
    0
 62
7
  6
CONTINUOUS
  0
LAYER
  2
画層101
 70
    0
 62
7
  6
CONTINUOUS
  0
LAYER
  2
画層102
 70
    0
 62
7
  6
CONTINUOUS
  0
LAYER
  2
画層103
 70
    0
 62
7
  6
CONTINUOUS
  0
LAYER
  2
画層104
 70
    0
 62
7
  6
CONTINUOUS
  0
LAYER
  2
画層105
 70
    0
 62
7
  6
CONTINUOUS
  0
LAYER
  2
画層106
 70
    0
 62
7
  6
CONTINUOUS
  0
LAYER
  2
画層107
 70
    0
 62
7
  6
CONTINUOUS
  0
LAYER
  2
画層108
 70
    0
 62
7
  6
CONTINUOUS
  0
LAYER
  2
画層109
 70
    0
 62
7
  6
CONTINUOUS
  0
LAYER
  2
画層110
 70
    0
 62
7
  6
CONTINUOUS
  0
LAYER
  2
画層111
 70
    0
 62
7
  6
CONTINUOUS
  0
LAYER
  2
画層112
 70
    0
 62
7
  6
CONTINUOUS
  0
LAYER
  2
画層113
 70
    0
 62
7
  6
CONTINUOUS
  0
LAYER
  2
画層114
 70
    0
 62
7
  6
CONTINUOUS
  0
LAYER
  2
画層115
 70
    0
 62
7
  6
CONTINUOUS
  0
LAYER
  2
画層116
 70
    0
 62
7
  6
CONTINUOUS
  0
LAYER
  2
画層117
 70
    0
 62
7
  6
CONTINUOUS
  0
LAYER
  2
画層118
 70
    0
 62
7
  6
CONTINUOUS
  0
LAYER
  2
画層119
 70
    0
 62
7
  6
CONTINUOUS
  0
LAYER
  2
画層120
 70
    0
 62
7
  6
CONTINUOUS
  0
LAYER
  2
画層121
 70
    0
 62
7
  6
CONTINUOUS
  0
LAYER
  2
画層122
 70
    0
 62
7
  6
CONTINUOUS
  0
LAYER
  2
画層123
 70
    0
 62
7
  6
CONTINUOUS
  0
LAYER
  2
画層124
 70
    0
 62
7
  6
CONTINUOUS
  0
LAYER
  2
画層125
 70
    0
 62
7
  6
CONTINUOUS
  0
LAYER
  2
画層126
 70
    0
 62
7
  6
CONTINUOUS
  0
LAYER
  2
画層127
 70
    0
 62
7
  6
CONTINUOUS
  0
LAYER
  2
画層128
 70
    0
 62
7
  6
CONTINUOUS
  0
LAYER
  2
画層129
 70
    0
 62
7
  6
CONTINUOUS
  0
LAYER
  2
画層130
 70
    0
 62
7
  6
CONTINUOUS
  0
LAYER
  2
画層131
 70
    0
 62
7
  6
CONTINUOUS
  0
LAYER
  2
画層132
 70
    0
 62
7
  6
CONTINUOUS
  0
LAYER
  2
画層133
 70
    0
 62
7
  6
CONTINUOUS
  0
LAYER
  2
画層134
 70
    0
 62
7
  6
CONTINUOUS
  0
LAYER
  2
画層135
 70
    0
 62
7
  6
CONTINUOUS
  0
LAYER
  2
画層136
 70
    0
 62
7
  6
CONTINUOUS
  0
LAYER
  2
画層137
 70
    0
 62
7
  6
CONTINUOUS
  0
LAYER
  2
画層138
 70
    0
 62
7
  6
CONTINUOUS
  0
LAYER
  2
画層139
 70
    0
 62
7
  6
CONTINUOUS
  0
LAYER
  2
画層140
 70
    0
 62
7
  6
CONTINUOUS
  0
LAYER
  2
画層141
 70
    0
 62
7
  6
CONTINUOUS
  0
LAYER
  2
画層142
 70
    0
 62
7
  6
CONTINUOUS
  0
LAYER
  2
画層143
 70
    0
 62
7
  6
CONTINUOUS
  0
LAYER
  2
画層144
 70
    0
 62
7
  6
CONTINUOUS
  0
LAYER
  2
画層145
 70
    0
 62
7
  6
CONTINUOUS
  0
LAYER
  2
画層146
 70
    0
 62
7
  6
CONTINUOUS
  0
LAYER
  2
画層147
 70
    0
 62
7
  6
CONTINUOUS
  0
LAYER
  2
画層148
 70
    0
 62
7
  6
CONTINUOUS
  0
LAYER
  2
画層149
 70
    0
 62
7
  6
CONTINUOUS
  0
LAYER
  2
画層150
 70
    0
 62
7
  6
CONTINUOUS
  0
LAYER
  2
画層151
 70
    0
 62
7
  6
CONTINUOUS
  0
LAYER
  2
画層152
 70
    0
 62
7
  6
CONTINUOUS
  0
LAYER
  2
画層153
 70
    0
 62
7
  6
CONTINUOUS
  0
LAYER
  2
画層154
 70
    0
 62
7
  6
CONTINUOUS
  0
LAYER
  2
画層155
 70
    0
 62
7
  6
CONTINUOUS
  0
LAYER
  2
画層156
 70
    0
 62
7
  6
CONTINUOUS
  0
LAYER
  2
画層157
 70
    0
 62
7
  6
CONTINUOUS
  0
LAYER
  2
画層158
 70
    0
 62
7
  6
CONTINUOUS
  0
LAYER
  2
画層159
 70
    0
 62
7
  6
CONTINUOUS
  0
LAYER
  2
画層160
 70
    0
 62
7
  6
CONTINUOUS
  0
LAYER
  2
画層161
 70
    0
 62
7
  6
CONTINUOUS
  0
LAYER
  2
画層162
 70
    0
 62
7
  6
CONTINUOUS
  0
LAYER
  2
画層163
 70
    0
 62
7
  6
CONTINUOUS
  0
LAYER
  2
画層164
 70
    0
 62
7
  6
CONTINUOUS
  0
LAYER
  2
画層165
 70
    0
 62
7
  6
CONTINUOUS
  0
LAYER
  2
画層166
 70
    0
 62
7
  6
CONTINUOUS
  0
LAYER
  2
画層167
 70
    0
 62
7
  6
CONTINUOUS
  0
LAYER
  2
画層168
 70
    0
 62
7
  6
CONTINUOUS
  0
LAYER
  2
画層169
 70
    0
 62
7
  6
CONTINUOUS
  0
LAYER
  2
画層170
 70
    0
 62
7
  6
CONTINUOUS
  0
LAYER
  2
画層171
 70
    0
 62
7
  6
CONTINUOUS
  0
LAYER
  2
画層172
 70
    0
 62
7
  6
CONTINUOUS
  0
LAYER
  2
画層173
 70
    0
 62
7
  6
CONTINUOUS
  0
LAYER
  2
画層174
 70
    0
 62
7
  6
CONTINUOUS
  0
LAYER
  2
画層175
 70
    0
 62
7
  6
CONTINUOUS
  0
LAYER
  2
画層176
 70
    0
 62
7
  6
CONTINUOUS
  0
LAYER
  2
画層177
 70
    0
 62
7
  6
CONTINUOUS
  0
LAYER
  2
画層178
 70
    0
 62
7
  6
CONTINUOUS
  0
LAYER
  2
画層179
 70
    0
 62
7
  6
CONTINUOUS
  0
LAYER
  2
画層180
 70
    0
 62
7
  6
CONTINUOUS
  0
LAYER
  2
画層181
 70
    0
 62
7
  6
CONTINUOUS
  0
LAYER
  2
画層182
 70
    0
 62
7
  6
CONTINUOUS
  0
LAYER
  2
画層183
 70
    0
 62
7
  6
CONTINUOUS
  0
LAYER
  2
画層184
 70
    0
 62
7
  6
CONTINUOUS
  0
LAYER
  2
画層185
 70
    0
 62
7
  6
CONTINUOUS
  0
LAYER
  2
画層186
 70
    0
 62
7
  6
CONTINUOUS
  0
LAYER
  2
画層187
 70
    0
 62
7
  6
CONTINUOUS
  0
LAYER
  2
画層188
 70
    0
 62
7
  6
CONTINUOUS
  0
LAYER
  2
画層189
 70
    0
 62
7
  6
CONTINUOUS
  0
LAYER
  2
画層190
 70
    0
 62
7
  6
CONTINUOUS
  0
LAYER
  2
画層191
 70
    0
 62
7
  6
CONTINUOUS
  0
LAYER
  2
画層192
 70
    0
 62
7
  6
CONTINUOUS
  0
LAYER
  2
画層193
 70
    0
 62
7
  6
CONTINUOUS
  0
LAYER
  2
画層194
 70
    0
 62
7
  6
CONTINUOUS
  0
LAYER
  2
画層195
 70
    0
 62
7
  6
CONTINUOUS
  0
LAYER
  2
画層196
 70
    0
 62
7
  6
CONTINUOUS
  0
LAYER
  2
画層197
 70
    0
 62
7
  6
CONTINUOUS
  0
LAYER
  2
画層198
 70
    0
 62
7
  6
CONTINUOUS
  0
LAYER
  2
画層199
 70
    0
 62
7
  6
CONTINUOUS
  0
LAYER
  2
画層200
 70
    0
 62
7
  6
CONTINUOUS
  0
LAYER
  2
画層201
 70
    0
 62
7
  6
CONTINUOUS
  0
LAYER
  2
画層202
 70
    0
 62
7
  6
CONTINUOUS
  0
LAYER
  2
画層203
 70
    0
 62
7
  6
CONTINUOUS
  0
LAYER
  2
画層204
 70
    0
 62
7
  6
CONTINUOUS
  0
LAYER
  2
画層205
 70
    0
 62
7
  6
CONTINUOUS
  0
LAYER
  2
画層206
 70
    0
 62
7
  6
CONTINUOUS
  0
LAYER
  2
画層207
 70
    0
 62
7
  6
CONTINUOUS
  0
LAYER
  2
画層208
 70
    0
 62
7
  6
CONTINUOUS
  0
LAYER
  2
画層209
 70
    0
 62
7
  6
CONTINUOUS
  0
LAYER
  2
画層210
 70
    0
 62
7
  6
CONTINUOUS
  0
LAYER
  2
画層211
 70
    0
 62
7
  6
CONTINUOUS
  0
LAYER
  2
画層212
 70
    0
 62
7
  6
CONTINUOUS
  0
LAYER
  2
画層213
 70
    0
 62
7
  6
CONTINUOUS
  0
LAYER
  2
画層214
 70
    0
 62
7
  6
CONTINUOUS
  0
LAYER
  2
画層215
 70
    0
 62
7
  6
CONTINUOUS
  0
LAYER
  2
画層216
 70
    0
 62
7
  6
CONTINUOUS
  0
LAYER
  2
画層217
 70
    0
 62
7
  6
CONTINUOUS
  0
LAYER
  2
画層218
 70
    0
 62
7
  6
CONTINUOUS
  0
LAYER
  2
画層219
 70
    0
 62
7
  6
CONTINUOUS
  0
LAYER
  2
画層220
 70
    0
 62
7
  6
CONTINUOUS
  0
LAYER
  2
画層221
 70
    0
 62
7
  6
CONTINUOUS
  0
LAYER
  2
画層222
 70
    0
 62
7
  6
CONTINUOUS
  0
LAYER
  2
画層223
 70
    0
 62
7
  6
CONTINUOUS
  0
LAYER
  2
画層224
 70
    0
 62
7
  6
CONTINUOUS
  0
LAYER
  2
画層225
 70
    0
 62
7
  6
CONTINUOUS
  0
LAYER
  2
画層226
 70
    0
 62
7
  6
CONTINUOUS
  0
LAYER
  2
画層227
 70
    0
 62
7
  6
CONTINUOUS
  0
LAYER
  2
画層228
 70
    0
 62
7
  6
CONTINUOUS
  0
LAYER
  2
画層229
 70
    0
 62
7
  6
CONTINUOUS
  0
LAYER
  2
画層230
 70
    0
 62
7
  6
CONTINUOUS
  0
LAYER
  2
画層231
 70
    0
 62
7
  6
CONTINUOUS
  0
LAYER
  2
画層232
 70
    0
 62
7
  6
CONTINUOUS
  0
LAYER
  2
画層233
 70
    0
 62
7
  6
CONTINUOUS
  0
LAYER
  2
画層234
 70
    0
 62
7
  6
CONTINUOUS
  0
LAYER
  2
画層235
 70
    0
 62
7
  6
CONTINUOUS
  0
LAYER
  2
画層236
 70
    0
 62
7
  6
CONTINUOUS
  0
LAYER
  2
画層237
 70
    0
 62
7
  6
CONTINUOUS
  0
LAYER
  2
画層238
 70
    0
 62
7
  6
CONTINUOUS
  0
LAYER
  2
画層239
 70
    0
 62
7
  6
CONTINUOUS
  0
LAYER
  2
画層240
 70
    0
 62
7
  6
CONTINUOUS
  0
LAYER
  2
画層241
 70
    0
 62
7
  6
CONTINUOUS
  0
LAYER
  2
画層242
 70
    0
 62
7
  6
CONTINUOUS
  0
LAYER
  2
画層243
 70
    0
 62
7
  6
CONTINUOUS
  0
LAYER
  2
画層244
 70
    0
 62
7
  6
CONTINUOUS
  0
LAYER
  2
画層245
 70
    0
 62
7
  6
CONTINUOUS
  0
LAYER
  2
画層246
 70
    0
 62
7
  6
CONTINUOUS
  0
LAYER
  2
画層247
 70
    0
 62
7
  6
CONTINUOUS
  0
LAYER
  2
画層248
 70
    0
 62
7
  6
CONTINUOUS
  0
LAYER
  2
画層249
 70
    0
 62
7
  6
CONTINUOUS
  0
LAYER
  2
画層250
 70
    0
 62
7
  6
CONTINUOUS
  0
LAYER
  2
画層251
 70
    0
 62
7
  6
CONTINUOUS
  0
LAYER
  2
画層252
 70
    0
 62
7
  6
CONTINUOUS
  0
LAYER
  2
画層253
 70
    0
 62
7
  6
CONTINUOUS
  0
LAYER
  2
画層254
 70
    0
 62
7
  6
CONTINUOUS
  0
LAYER
  2
画層255
 70
    0
 62
7
  6
CONTINUOUS
  0
ENDTAB
  0
TABLE
  2
STYLE
 70
     1
  0
STYLE
  2
Standard
 70
     0
 40
0.0
 41
1.0
 50
0.0
 71
     0
 42
3.2
  3
TXT
  4
BIGFONT
  0
STYLE
  2
Font_0
 70
     0
 40
0.0
 41
1.0
 50
0.0
 71
     0
 42
3.2
  3
txt
  4
BIGFONT
  0
ENDTAB
  0
ENDSEC
  0
SECTION
  2
ENTITIES
  0
LINE
  8
0
  6
BYLAYER
 10
1879.99999999998
 20
1449.21654755371
 11
2093.5
 21
1449.2165475537
  0
LINE
  8
0
  6
BYLAYER
 10
2106.50000000001
 20
1449.21654755371
 11
2317.99999999998
 21
1449.21654755371
  0
ARC
  8
0
  6
BYLAYER
 10
2317.99999999998
 20
1445.21654755371
 40
4
 50
270
 51
90
  0
LINE
  8
0
  6
BYLAYER
 10
1883.99999999998
 20
1441.21654755371
 11
1883.99999999998
 21
1429.21654755371
  0
ARC
  8
0
  6
BYLAYER
 10
1879.99999999998
 20
1445.21654755371
 40
4
 50
90
 51
270
  0
LINE
  8
0
  6
BYLAYER
 10
1883.99999999998
 20
1429.21654755371
 11
1893.63120190473
 21
1374.39278286512
  0
LINE
  8
0
  6
BYLAYER
 10
2305.38411181177
 20
1374.39278286512
 11
2314.9849172563
 21
1429.04352154922
  0
LINE
  8
0
  6
BYLAYER
 10
2314.99999999998
 20
1429.21654755371
 11
2314.99999999998
 21
1441.21654755371
  0
LINE
  8
0
  6
BYLAYER
 10
1921.1
 20
554.392782865117
 11
2294.90000000001
 21
554.392782865117
  0
LINE
  8
0
  6
BYLAYER
 10
1921.1
 20
579.392782865117
 11
2266.40000000001
 21
579.392782865117
  0
LINE
  8
0
  6
BYLAYER
 10
1921.1
 20
829.392782865117
 11
2266.40000000001
 21
829.392782865117
  0
ARC
  8
0
  6
BYLAYER
 10
1921.1
 20
566.892782865117
 40
12.5
 50
90
 51
270
  0
ARC
  8
0
  6
BYLAYER
 10
1921.1
 20
841.892782865117
 40
12.5
 50
90
 51
270
  0
LINE
  8
0
  6
BYLAYER
 10
2266.40000000001
 20
554.392782865117
 11
2266.40000000001
 21
854.392782865117
  0
LINE
  8
0
  6
BYLAYER
 10
2291.40000000001
 20
554.392782865117
 11
2291.40000000001
 21
1239.76567291416
  0
LINE
  8
0
  6
BYLAYER
 10
2001.40000000001
 20
579.392782865117
 11
2001.40000000001
 21
829.392782865117
  0
LINE
  8
0
  6
BYLAYER
 10
2026.40000000001
 20
579.392782865117
 11
2026.40000000001
 21
829.392782865117
  0
LINE
  8
0
  6
BYLAYER
 10
2321.99011836039
 20
1266.6620770487
 11
2432.66479289623
 21
1521.41196728465
  0
LINE
  8
0
  6
BYLAYER
 10
2299.06053256795
 20
1276.62370820964
 11
2409.73520710379
 21
1531.37359844559
  0
LINE
  8
0
  6
BYLAYER
 10
2316.40000000001
 20
1239.76567291416
 11
2316.40000000001
 21
754.392782865117
  0
ARC
  8
0
  6
BYLAYER
 10
2383.90000000001
 20
1239.76567291416
 40
67.5
 50
156.517731375954
 51
180
  0
ARC
  8
0
  6
BYLAYER
 10
2383.90000000001
 20
1239.76567291416
 40
92.5
 50
156.517731375954
 51
180
  0
ARC
  8
0
  6
BYLAYER
 10
2421.20000000001
 20
1526.39278286512
 40
12.5
 50
336.517731375954
 51
156.517731375954
  0
LINE
  8
0
  6
BYLAYER
 10
2316.40000000001
 20
754.392782865117
 11
2291.40000000001
 21
754.392782865117
  0
LINE
  8
0
  6
BYLAYER
 10
2264.90000000001
 20
529.392782865117
 11
2292.90000000001
 21
529.392782865117
  0
LINE
  8
0
  6
BYLAYER
 10
2264.90000000001
 20
529.392782865117
 11
2262.90000000001
 21
554.392782865117
  0
LINE
  8
0
  6
BYLAYER
 10
2292.90000000001
 20
529.392782865117
 11
2294.90000000001
 21
554.392782865117
  0
LINE
  8
0
  6
BYLAYER
 10
1943.00000000001
 20
529.392782865117
 11
1971.00000000001
 21
529.392782865117
  0
LINE
  8
0
  6
BYLAYER
 10
1943.00000000001
 20
529.392782865117
 11
1941.00000000001
 21
554.392782865117
  0
LINE
  8
0
  6
BYLAYER
 10
1971.00000000001
 20
529.392782865117
 11
1973.00000000001
 21
554.392782865117
  0
LINE
  8
0
  6
BYLAYER
 10
2334.70127018924
 20
620.392782865117
 11
2291.40000000001
 21
645.392782865117
  0
LINE
  8
0
  6
BYLAYER
 10
2359.70127018925
 20
577.091512675917
 11
2334.70127018924
 21
620.392782865117
  0
LINE
  8
0
  6
BYLAYER
 10
2336.71538935184
 20
549.608761367347
 11
2301.50453383845
 21
566.027852943432
  0
LINE
  8
0
  6
BYLAYER
 10
2291.40000000001
 20
595.392782865102
 11
2301.50453383844
 21
566.027852943446
  0
CIRCLE
  8
0
  6
BYLAYER
 10
2341.40000000001
 20
569.187206935592
 40
6
  0
ARC
  8
0
  6
BYLAYER
 10
2341.40000000001
 20
569.187206935592
 40
19.9826441281038
 50
235.769687489048
 51
37.7202357806243
  0
ARC
  8
0
  6
BYLAYER
 10
2341.40000000001
 20
569.187206935592
 40
32.5
 50
192.364911686143
 51
82.4627223398236
  0
LINE
  8
0
  6
BYLAYER
 10
1926
 20
1124.39278286512
 11
2274
 21
1124.39278286512
  0
LINE
  8
0
  6
BYLAYER
 10
1926
 20
1124.39278286512
 11
1926
 21
1040.39278286512
  0
LINE
  8
0
  6
BYLAYER
 10
2274
 20
1124.39278286512
 11
2274
 21
1040.39278286512
  0
LINE
  8
0
  6
BYLAYER
 10
1926
 20
1040.39278286512
 11
2274
 21
1040.39278286512
  0
LINE
  8
0
  6
BYLAYER
 10
1941.5
 20
864.19278286512
 11
1941.5
 21
1040.39278286512
  0
ARC
  8
0
  6
BYLAYER
 10
1935.5
 20
864.19278286512
 40
6
 50
270
 51
0
  0
LINE
  8
0
  6
BYLAYER
 10
2258.5
 20
864.19278286512
 11
2258.5
 21
1040.39278286512
  0
ARC
  8
0
  6
BYLAYER
 10
2264.5
 20
864.19278286512
 40
6
 50
180
 51
270
  0
LINE
  8
0
  6
BYLAYER
 10
2291.40000000001
 20
854.392782865117
 11
1911.5
 21
854.392782865117
  0
LINE
  8
0
  6
BYLAYER
 10
2288.5
 20
854.392782865117
 11
2288.5
 21
858.19278286512
  0
LINE
  8
0
  6
BYLAYER
 10
1911.5
 20
854.392782865117
 11
1911.5
 21
858.19278286512
  0
LINE
  8
0
  6
BYLAYER
 10
1911.5
 20
858.19278286512
 11
2288.5
 21
858.19278286512
  0
LINE
  8
0
  6
BYLAYER
 10
2227.11386373953
 20
2374.86515673971
 11
2266.40000000001
 21
2374.86515673971
  0
ARC
  8
0
  6
BYLAYER
 10
2001.1
 20
2087.36515673971
 40
92.5
 50
199.087141292927
 51
251.21794778233
  0
ARC
  8
0
  6
BYLAYER
 10
2001.1
 20
2282.36515673971
 40
92.5
 50
116.981872438338
 51
154.978960285869
  0
LINE
  8
0
  6
BYLAYER
 10
2221.21316364418
 20
1994.86515673971
 11
2266.40000000001
 21
1994.86515673971
  0
LINE
  8
0
  6
BYLAYER
 10
2291.40000000001
 20
2377.36515673971
 11
2291.40000000001
 21
2308.83842493084
  0
LINE
  8
0
  6
BYLAYER
 10
2291.40000000001
 20
2064.74794990164
 11
2291.40000000001
 21
1992.36515673971
  0
LINE
  8
0
  6
BYLAYER
 10
2266.40000000001
 20
2377.36515673971
 11
2266.40000000001
 21
2341.19538947306
  0
LINE
  8
0
  6
BYLAYER
 10
2266.40000000001
 20
2032.3909853594
 11
2266.40000000001
 21
1992.36515673971
  0
LINE
  8
0
  6
BYLAYER
 10
2266.40000000001
 20
2377.36515673971
 11
2291.40000000001
 21
2377.36515673971
  0
LINE
  8
0
  6
BYLAYER
 10
2266.40000000001
 20
1992.36515673971
 11
2291.40000000001
 21
1992.36515673971
  0
LINE
  8
0
  6
BYLAYER
 10
2257.91305462489
 20
2349.86515673971
 11
2266.40000000001
 21
2349.86515673971
  0
LINE
  8
0
  6
BYLAYER
 10
2253.83118206156
 20
2019.86515673971
 11
2266.40000000001
 21
2019.86515673971
  0
LINE
  8
中心
  6
DASHDOT
 10
2480.8506329932
 20
2188.72121809276
 11
1727.6626596082
 21
2186.79318741623
  0
LINE
  8
中心
  6
DASHDOT
 10
2100
 20
1914.70539205794
 11
2100
 21
2457.98577993241
  0
LINE
  8
0
  6
BYLAYER
 10
2327
 20
1374.39278286512
 11
2110.49999999998
 21
1374.39278286512
  0
LINE
  8
0
  6
BYLAYER
 10
2089.49999999998
 20
1374.39278286512
 11
1873
 21
1374.39278286512
  0
LINE
  8
0
  6
BYLAYER
 10
1873
 20
1384.39278286512
 11
1873.00000000001
 21
1317.9232029591
  0
LINE
  8
0
  6
BYLAYER
 10
2210
 20
1249.39278286512
 11
2068.23562650537
 21
1249.39278286511
  0
LINE
  8
0
  6
BYLAYER
 10
1936.00000000001
 20
1279.39278286511
 11
1876.08614241294
 21
1312.67825930237
  0
ARC
  8
0
  6
BYLAYER
 10
1879.00000000001
 20
1317.9232029591
 40
6
 50
180
 51
240.945395900073
  0
LINE
  8
0
  6
BYLAYER
 10
2325.6
 20
1374.39278286512
 11
2325.6
 21
1337.7119964164
  0
LINE
  8
0
  6
BYLAYER
 10
2214.76604251658
 20
1252.0405842632
 11
2311.80060008347
 21
1305.94867180037
  0
LINE
  8
0
  6
BYLAYER
 10
2212.39999999999
 20
1248.01946079304
 11
2212.39999999998
 21
1126.79278286512
  0
ARC
  8
0
  6
BYLAYER
 10
2217
 20
1248.01946079304
 40
4.6
 50
119.054604099927
 51
180
  0
LINE
  8
0
  6
BYLAYER
 10
1987.6
 20
1159.15194516878
 11
1987.6
 21
1126.79278286512
  0
LINE
  8
0
  6
BYLAYER
 10
2244.5
 20
1126.79278286512
 11
1955.5
 21
1126.79278286512
  0
LINE
  8
0
  6
BYLAYER
 10
1990
 20
1160.1257671583
 11
1990
 21
1124.39278286511
  0
LINE
  8
0
  6
BYLAYER
 10
2244.5
 20
1124.39278286512
 11
2244.5
 21
1126.79278286512
  0
LINE
  8
0
  6
BYLAYER
 10
1955.5
 20
1124.39278286512
 11
1955.5
 21
1126.79278286512
  0
LINE
  8
0
  6
BYLAYER
 10
1828
 20
1094.39278286512
 11
1898
 21
1122.79592422636
  0
LINE
  8
0
  6
BYLAYER
 10
1902
 20
1124.41896087558
 11
2100
 21
1204.75927501171
  0
LINE
  8
0
  6
BYLAYER
 10
1828
 20
1094.39278286512
 11
1828
 21
1162.79671421145
  0
ARC
  8
0
  6
BYLAYER
 10
1868
 20
1162.79671421145
 40
40
 50
132.510447078615
 51
180
  0
LINE
  8
0
  6
BYLAYER
 10
1840.9710148593
 20
1192.28287981948
 11
1898
 21
1244.55944953179
  0
LINE
  8
0
  6
BYLAYER
 10
1901.99245283019
 20
1248.21919795945
 11
1936
 21
1279.39278286512
  0
LINE
  8
0
  6
BYLAYER
 10
1936
 20
1279.39278286512
 11
2068.23562650535
 21
1249.39278286512
  0
LINE
  8
0
  6
BYLAYER
 10
1898
 20
1121.60744255097
 11
1898
 21
1248.39278286512
  0
LINE
  8
0
  6
BYLAYER
 10
1902
 20
1121.60744255097
 11
1902
 21
1248.22611619845
  0
LINE
  8
0
  6
BYLAYER
 10
1902
 20
1248.22611619845
 11
1901.99245283019
 21
1248.21919795944
  0
ARC
  8
0
  6
BYLAYER
 10
1900
 20
1248.39278286512
 40
2
 50
355.020894156115
 51
180
  0
ARC
  8
0
  6
BYLAYER
 10
1900
 20
1121.60744255097
 40
2
 50
180
 51
0
  0
LINE
  8
0
  6
BYLAYER
 10
2326.99999999998
 20
1340.93450281025
 11
2327
 21
1384.39278286512
  0
LINE
  8
0
  6
BYLAYER
 10
2327
 20
1384.39278286512
 11
2329
 21
1384.39278286512
  0
LINE
  8
0
  6
BYLAYER
 10
2328.99999999997
 20
1345.5380833729
 11
2329
 21
1384.39278286512
  0
LINE
  8
0
  6
BYLAYER
 10
2327
 20
1384.39278286512
 11
2333.5
 21
1384.39278286511
  0
LINE
  8
0
  6
BYLAYER
 10
2328.99999999998
 20
1375.39278286511
 11
2333.5
 21
1375.39278286512
  0
ARC
  8
0
  6
BYLAYER
 10
2333.5
 20
1379.89278286512
 40
4.5
 50
270
 51
90
  0
CIRCLE
  8
0
  6
BYLAYER
 10
2333.5
 20
1379.89278286512
 40
1.1
  0
LINE
  8
0
  6
BYLAYER
 10
2332
 20
1384.39278286512
 11
2335.47982870086
 21
1384.39278286512
  0
ARC
  8
0
  6
BYLAYER
 10
2335
 20
1358.39278286512
 40
3.5
 50
90
 51
240.269122481563
  0
LINE
  8
0
  6
BYLAYER
 10
2340.46341978742
 20
1371.92447163043
 11
2337.40686452012
 21
1382.92807059269
  0
ARC
  8
0
  6
BYLAYER
 10
2335.47982870086
 20
1382.39278286512
 40
2
 50
15.5241109966653
 51
90
  0
LINE
  8
0
  6
BYLAYER
 10
2335
 20
1361.89278286512
 11
2336.10520833495
 21
1361.89278286512
  0
LINE
  8
0
  6
BYLAYER
 10
2329
 20
1372.39278286512
 11
2329.29999999999
 21
1375.39278286511
  0
CIRCLE
  8
0
  6
BYLAYER
 10
2332
 20
1367.39278286512
 40
1.1
  0
LINE
  8
0
  6
BYLAYER
 10
1871
 20
1328.39278286512
 11
1871
 21
1384.39278286512
  0
LINE
  8
0
  6
BYLAYER
 10
1873
 20
1328.39278286512
 11
1871
 21
1328.39278286512
  0
LINE
  8
0
  6
BYLAYER
 10
1871.00000000001
 20
1375.39278286511
 11
1866.5
 21
1375.39278286512
  0
ARC
  8
0
  6
BYLAYER
 10
1866.5
 20
1379.89278286512
 40
4.5
 50
90
 51
270
  0
LINE
  8
0
  6
BYLAYER
 10
1873
 20
1384.39278286512
 11
1864.52017129914
 21
1384.39278286512
  0
ARC
  8
0
  6
BYLAYER
 10
1865
 20
1358.39278286512
 40
3.5
 50
270
 51
90
  0
LINE
  8
0
  6
BYLAYER
 10
1868.52056425578
 20
1333.19654457036
 11
1861.25604048728
 21
1352.4383236339
  0
ARC
  8
0
  6
BYLAYER
 10
1863.20372290676
 20
1352.89278286512
 40
2
 50
90
 51
193.134022306153
  0
LINE
  8
0
  6
BYLAYER
 10
1858.32874764123
 20
1364.98386440269
 11
1858.05804288393
 21
1366.14402764825
  0
ARC
  8
0
  6
BYLAYER
 10
1862.22411248021
 20
1365.89278286512
 40
4
 50
193.134022306153
 51
270
  0
LINE
  8
0
  6
BYLAYER
 10
1858.06836618403
 20
1366.63890112764
 11
1862.59313547988
 21
1382.92807059269
  0
ARC
  8
0
  6
BYLAYER
 10
1859.03188409367
 20
1366.37125726386
 40
1
 50
164.475889003335
 51
193.134022306558
  0
ARC
  8
0
  6
BYLAYER
 10
1864.52017129914
 20
1382.39278286512
 40
2
 50
90
 51
164.475889003335
  0
LINE
  8
0
  6
BYLAYER
 10
1865
 20
1361.89278286512
 11
1862.22411248021
 21
1361.89278286512
  0
LINE
  8
0
  6
BYLAYER
 10
1865
 20
1354.89278286512
 11
1863.20372290676
 21
1354.89278286512
  0
LINE
  8
0
  6
BYLAYER
 10
1871
 20
1336.39278286512
 11
1868
 21
1316.39278286512
  0
LINE
  8
0
  6
BYLAYER
 10
1868
 20
1316.39278286512
 11
1866
 21
1316.39278286512
  0
LINE
  8
0
  6
BYLAYER
 10
1866
 20
1316.39278286512
 11
1868.52056425578
 21
1333.19654457036
  0
CIRCLE
  8
0
  6
BYLAYER
 10
1866.5
 20
1379.89278286512
 40
1.1
  0
LINE
  8
0
  6
BYLAYER
 10
1871
 20
1372.39278286512
 11
1870.70000000001
 21
1375.39278286511
  0
CIRCLE
  8
0
  6
BYLAYER
 10
1868
 20
1367.39278286512
 40
1.1
  0
ARC
  8
0
  6
BYLAYER
 10
1879.94585854753
 20
1447.59459854503
 40
6.5
 50
14.4497382486265
 51
161.524555517917
  0
ARC
  8
0
  6
BYLAYER
 10
1879.94585854753
 20
1447.59459854503
 40
5.1
 50
18.5437820968288
 51
161.524555517917
  0
POLYLINE
  8
0
  6
BYLAYER
 10
0.0
 20
0.0
 30
0.0
 66
1
  0
VERTEX
  8
0
 10
1863.03799505121
  20
1377.73046282264
  0
VERTEX
  8
0
 10
1855.74138109384
  20
1395.66319606537
  0
VERTEX
  8
0
 10
1873.7808714281
  20
1449.65443684377
  0
SEQEND
100
AcDbEntity
  8
0
  0
POLYLINE
  8
0
  6
BYLAYER
 10
0.0
 20
0.0
 30
0.0
 66
1
  0
VERTEX
  8
0
 10
1863.91170912261
  20
1379.29782285513
  0
VERTEX
  8
0
 10
1857.23340993894
  20
1395.71093700308
  0
VERTEX
  8
0
 10
1875.10871480767
  20
1449.21077936404
  0
SEQEND
100
AcDbEntity
  8
0
  0
LINE
  8
0
  6
BYLAYER
 10
2106.5
 20
1365.89570743856
 11
2093.5
 21
1365.89570743856
  0
LINE
  8
0
  6
BYLAYER
 10
2106.5
 20
1365.89570743856
 11
2106.50000000001
 21
1456.97791883004
  0
LINE
  8
0
  6
BYLAYER
 10
2093.5
 20
1365.89570743856
 11
2093.5
 21
1456.97791883005
  0
LINE
  8
0
  6
BYLAYER
 10
2106.5
 20
1456.97791883004
 11
2093.49999999998
 21
1456.97791883005
  0
LINE
  8
0
  6
BYLAYER
 10
2108.99999999997
 20
1333.19654457036
 11
2107.00000000001
 21
1333.19654457036
  0
LINE
  8
0
  6
BYLAYER
 10
2093.00000000001
 20
1333.19654457036
 11
2091.00000000001
 21
1333.19654457036
  0
LINE
  8
0
  6
BYLAYER
 10
2108.99999999998
 20
1384.39278286512
 11
2108.99999999998
 21
1333.19654457036
  0
LINE
  8
0
  6
BYLAYER
 10
2090.99999999998
 20
1384.39278286512
 11
2091
 21
1333.19654457036
  0
LINE
  8
0
  6
BYLAYER
 10
2110.49999999998
 20
1328.39278286512
 11
2107
 21
1328.39278286511
  0
LINE
  8
0
  6
BYLAYER
 10
2093
 20
1328.39278286512
 11
2089.49999999998
 21
1328.39278286512
  0
LINE
  8
0
  6
BYLAYER
 10
2110.49999999998
 20
1328.39278286512
 11
2110.5
 21
1384.39278286512
  0
POLYLINE
  8
0
  6
BYLAYER
 10
0.0
 20
0.0
 30
0.0
 66
1
  0
VERTEX
  8
0
 10
2089.49999999998
  20
1328.39278286512
  0
VERTEX
  8
0
 10
2089.49999999998
  20
1384.39278286512
  0
SEQEND
100
AcDbEntity
  8
0
  0
LINE
  8
0
  6
BYLAYER
 10
2107
 20
1316.39278286512
 11
2093
 21
1316.39278286512
  0
LINE
  8
0
  6
BYLAYER
 10
2106.99999999998
 20
1384.39278286512
 11
2107
 21
1316.39278286511
  0
LINE
  8
0
  6
BYLAYER
 10
2092.99999999998
 20
1384.39278286512
 11
2092.99999999998
 21
1316.39278286512
  0
LINE
  8
0
  6
BYLAYER
 10
2107
 20
1354.89278286511
 11
2093
 21
1354.89278286511
  0
LINE
  8
0
  6
BYLAYER
 10
2107
 20
1361.89278286512
 11
2093
 21
1361.89278286512
  0
LINE
  8
0
  6
BYLAYER
 10
2089.49999999998
 20
1384.39278286512
 11
2110.49999999998
 21
1384.39278286512
  0
LINE
  8
0
  6
BYLAYER
 10
1879.99999999998
 20
1441.21654755371
 11
2093.5
 21
1441.2165475537
  0
LINE
  8
0
  6
BYLAYER
 10
2106.50000000001
 20
1441.21654755371
 11
2317.99999999998
 21
1441.21654755371
  0
ARC
  8
0
  6
BYLAYER
 10
2320.05414145243
 20
1447.59459854503
 40
6.5
 50
18.4754444816855
 51
165.550261751374
  0
ARC
  8
0
  6
BYLAYER
 10
2320.05414145243
 20
1447.59459854503
 40
5.1
 50
18.4754444816855
 51
161.456217903171
  0
POLYLINE
  8
0
  6
BYLAYER
 10
0.0
 20
0.0
 30
0.0
 66
1
  0
VERTEX
  8
0
 10
2337.98602367427
  20
1380.24717190819
  0
VERTEX
  8
0
 10
2344.25861890612
  20
1395.66319606537
  0
VERTEX
  8
0
 10
2326.21912857187
  20
1449.65443684377
  0
SEQEND
100
AcDbEntity
  8
0
  0
POLYLINE
  8
0
  6
BYLAYER
 10
0.0
 20
0.0
 30
0.0
 66
1
  0
VERTEX
  8
0
 10
2337.30677436823
  20
1382.29246386671
  0
VERTEX
  8
0
 10
2342.76659006103
  20
1395.71093700308
  0
VERTEX
  8
0
 10
2324.89128519229
  20
1449.21077936404
  0
SEQEND
100
AcDbEntity
  8
0
  0
LINE
  8
0
  6
BYLAYER
 10
2432.66479289625
 20
2334.29318741624
 11
2432.66479289625
 21
2039.29318741623
  0
ARC
  8
0
  6
BYLAYER
 10
2387.66479289625
 20
2039.29318741623
 40
45
 50
270
 51
0
  0
ARC
  8
0
  6
BYLAYER
 10
2387.66479289625
 20
2334.29318741624
 40
45
 50
0
 51
90
  0
LINE
  8
0
  6
BYLAYER
 10
2407.66479289625
 20
2039.29318741623
 11
2407.66479289625
 21
2334.29318741623
  0
ARC
  8
0
  6
BYLAYER
 10
2387.66479289625
 20
2039.29318741623
 40
20
 50
270
 51
0
  0
ARC
  8
0
  6
BYLAYER
 10
2387.66479289625
 20
2334.29318741623
 40
20
 50
0
 51
90
  0
ARC
  8
0
  6
BYLAYER
 10
2303.90000000001
 20
2364.86515673971
 40
12.5
 50
90
 51
270
  0
LINE
  8
0
  6
BYLAYER
 10
2303.90000000001
 20
2377.36515673971
 11
2387.66479289625
 21
2379.29318741623
  0
LINE
  8
0
  6
BYLAYER
 10
2303.90000000001
 20
2352.36515673971
 11
2387.66479289625
 21
2354.29318741623
  0
ARC
  8
0
  6
BYLAYER
 10
2303.90000000001
 20
2004.86515673971
 40
12.5
 50
90
 51
270
  0
LINE
  8
0
  6
BYLAYER
 10
2303.90000000001
 20
1992.36515673971
 11
2387.66479289625
 21
1994.29318741623
  0
LINE
  8
0
  6
BYLAYER
 10
2303.90000000001
 20
2017.36515673971
 11
2387.66479289625
 21
2019.29318741623
  0
CIRCLE
  8
0
  6
BYLAYER
 10
2100
 20
2186.79318741623
 40
227
  0
CIRCLE
  8
0
  6
BYLAYER
 10
2100
 20
2186.79318741623
 40
225.600000000006
  0
LINE
  8
0
  6
BYLAYER
 10
1828
 20
2263.79318741623
 11
1828
 21
2109.79318741623
  0
LINE
  8
0
  6
BYLAYER
 10
1890.36258282208
 20
2270.14493196293
 11
1828
 21
2263.79318741623
  0
LINE
  8
0
  6
BYLAYER
 10
1889.62302775601
 20
2268.2602945789
 11
1828.18238973689
 21
2262.0024518177
  0
LINE
  8
0
  6
BYLAYER
 10
1890.36258282208
 20
2103.44144286954
 11
1828
 21
2109.79318741623
  0
LINE
  8
0
  6
BYLAYER
 10
1889.62302775601
 20
2105.32608025357
 11
1828.18238973689
 21
2111.58392301477
  0
LINE
  8
0
  6
BYLAYER
 10
1871
 20
2176.29318741623
 11
1871
 21
2197.29318741623
  0
LINE
  8
0
  6
BYLAYER
 10
1873
 20
2176.29318741623
 11
1873
 21
2197.29318741623
  0
LINE
  8
0
  6
BYLAYER
 10
1858
 20
2195.79318741622
 11
1871
 21
2195.79318741622
  0
LINE
  8
0
  6
BYLAYER
 10
1858
 20
2179.79318741622
 11
1871.00000000001
 21
2179.79318741622
  0
LINE
  8
0
  6
BYLAYER
 10
1858
 20
2193.79318741622
 11
1871
 21
2193.79318741623
  0
LINE
  8
0
  6
BYLAYER
 10
1858
 20
2177.79318741622
 11
1871
 21
2177.79318741622
  0
LINE
  8
0
  6
BYLAYER
 10
1873
 20
2197.29318741623
 11
1858
 21
2197.29318741623
  0
LINE
  8
0
  6
BYLAYER
 10
1858
 20
2176.29318741622
 11
1858
 21
2197.29318741622
  0
LINE
  8
0
  6
BYLAYER
 10
2110.50000000001
 20
2428.79318741623
 11
2110.5
 21
2413.79318741623
  0
LINE
  8
0
  6
BYLAYER
 10
2110.5
 20
2415.79318741623
 11
2089.5
 21
2415.79318741623
  0
LINE
  8
0
  6
BYLAYER
 10
2110.5
 20
2413.79318741623
 11
2089.5
 21
2413.79318741623
  0
LINE
  8
0
  6
BYLAYER
 10
2089.5
 20
2428.79318741623
 11
2089.5
 21
2413.79318741623
  0
LINE
  8
0
  6
BYLAYER
 10
2089.50000000001
 20
2428.79318741623
 11
2110.50000000001
 21
2428.79318741623
  0
LINE
  8
0
  6
BYLAYER
 10
2091.00000000001
 20
2428.79318741623
 11
2091.00000000001
 21
2415.79318741623
  0
LINE
  8
0
  6
BYLAYER
 10
2107.00000000001
 20
2428.79318741623
 11
2107.00000000001
 21
2415.79318741622
  0
LINE
  8
0
  6
BYLAYER
 10
2093.00000000001
 20
2428.79318741623
 11
2093
 21
2415.79318741623
  0
LINE
  8
0
  6
BYLAYER
 10
2109.00000000001
 20
2428.79318741623
 11
2109.00000000001
 21
2415.79318741623
  0
LINE
  8
0
  6
BYLAYER
 10
2110.5
 20
1957.79318741623
 11
2089.5
 21
1957.79318741623
  0
LINE
  8
0
  6
BYLAYER
 10
2110.5
 20
1959.79318741623
 11
2089.5
 21
1959.79318741623
  0
LINE
  8
0
  6
BYLAYER
 10
2089.50000000001
 20
1944.79318741623
 11
2110.50000000001
 21
1944.79318741623
  0
LINE
  8
0
  6
BYLAYER
 10
2091.00000000001
 20
1944.79318741623
 11
2091.00000000001
 21
1957.79318741623
  0
LINE
  8
0
  6
BYLAYER
 10
2107.00000000001
 20
1944.79318741623
 11
2107.00000000001
 21
1957.79318741625
  0
LINE
  8
0
  6
BYLAYER
 10
2093.00000000001
 20
1944.79318741623
 11
2093
 21
1957.79318741623
  0
LINE
  8
0
  6
BYLAYER
 10
2109.00000000001
 20
1944.79318741623
 11
2109.00000000001
 21
1957.79318741623
  0
LINE
  8
0
  6
BYLAYER
 10
2089.5
 20
1959.79318741623
 11
2089.5
 21
1944.79318741623
  0
LINE
  8
0
  6
BYLAYER
 10
2110.50000000001
 20
1944.79318741623
 11
2106.5
 21
1944.79318741623
  0
LINE
  8
0
  6
BYLAYER
 10
2342
 20
2176.29318741622
 11
2327
 21
2176.29318741623
  0
LINE
  8
0
  6
BYLAYER
 10
2329
 20
2176.29318741623
 11
2329
 21
2197.29318741623
  0
LINE
  8
0
  6
BYLAYER
 10
2327
 20
2176.29318741623
 11
2327
 21
2197.29318741623
  0
LINE
  8
0
  6
BYLAYER
 10
2329
 20
2197.29318741623
 11
2327
 21
2197.29318741623
  0
LINE
  8
0
  6
BYLAYER
 10
2342
 20
2195.79318741622
 11
2329
 21
2195.79318741622
  0
LINE
  8
0
  6
BYLAYER
 10
2342
 20
2179.79318741622
 11
2328.99999999998
 21
2179.79318741622
  0
LINE
  8
0
  6
BYLAYER
 10
2342
 20
2193.79318741622
 11
2329
 21
2193.79318741623
  0
LINE
  8
0
  6
BYLAYER
 10
2342
 20
2177.79318741622
 11
2329
 21
2177.79318741622
  0
LINE
  8
0
  6
BYLAYER
 10
2329
 20
2197.29318741625
 11
2342
 21
2197.29318741623
  0
LINE
  8
0
  6
BYLAYER
 10
2342
 20
2176.29318741622
 11
2342
 21
2197.29318741622
  0
CIRCLE
  8
0
  6
BYLAYER
 10
2100
 20
2186.79318741623
 40
223
  0
CIRCLE
  8
0
  6
BYLAYER
 10
2100
 20
2186.79318741623
 40
215
  0
LINE
  8
0
  6
BYLAYER
 10
974.643640177294
 20
829.392782865117
 11
1329.64364017729
 21
829.392782865117
  0
LINE
  8
0
  6
BYLAYER
 10
974.643640177294
 20
579.392782865117
 11
1329.64364017729
 21
579.392782865117
  0
LINE
  8
0
  6
BYLAYER
 10
974.643640177294
 20
554.392782865117
 11
1329.64364017729
 21
554.392782865117
  0
ARC
  8
0
  6
BYLAYER
 10
974.643640177294
 20
841.892782865117
 40
12.5
 50
90
 51
270
  0
ARC
  8
0
  6
BYLAYER
 10
974.643640177294
 20
566.892782865117
 40
12.5
 50
90
 51
270
  0
ARC
  8
0
  6
BYLAYER
 10
1329.64364017729
 20
841.892782865117
 40
12.5
 50
270
 51
90
  0
ARC
  8
0
  6
BYLAYER
 10
1329.64364017729
 20
566.892782865117
 40
12.5
 50
270
 51
90
  0
LINE
  8
0
  6
BYLAYER
 10
962.143640177294
 20
841.892782865117
 11
962.143640177294
 21
566.892782865117
  0
LINE
  8
0
  6
BYLAYER
 10
987.143640177294
 20
829.392782865117
 11
987.143640177294
 21
579.392782865117
  0
LINE
  8
0
  6
BYLAYER
 10
1342.14364017729
 20
1293.83722730958
 11
1342.14364017729
 21
566.892782865117
  0
LINE
  8
0
  6
BYLAYER
 10
1317.14364017729
 20
829.392782865117
 11
1317.14364017729
 21
579.392782865117
  0
LINE
  8
0
  6
BYLAYER
 10
983.943640177297
 20
529.392782865117
 11
1011.9436401773
 21
529.392782865117
  0
LINE
  8
0
  6
BYLAYER
 10
983.943640177297
 20
529.392782865117
 11
981.943640177297
 21
554.392782865117
  0
LINE
  8
0
  6
BYLAYER
 10
1011.9436401773
 20
529.392782865117
 11
1013.9436401773
 21
554.392782865117
  0
LINE
  8
0
  6
BYLAYER
 10
1292.34364017729
 20
529.392782865117
 11
1320.34364017729
 21
529.392782865117
  0
LINE
  8
0
  6
BYLAYER
 10
1292.34364017729
 20
529.392782865117
 11
1290.34364017729
 21
554.392782865117
  0
LINE
  8
0
  6
BYLAYER
 10
1320.34364017729
 20
529.392782865117
 11
1322.34364017729
 21
554.392782865117
  0
LINE
  8
0
  6
BYLAYER
 10
962.143640177294
 20
841.892782865117
 11
962.143640177294
 21
1295.43876977595
  0
ARC
  8
0
  6
BYLAYER
 10
1054.64364017729
 20
1446.39278286512
 40
92.5
 50
90
 51
178.250649314185
  0
LINE
  8
0
  6
BYLAYER
 10
987.143640177294
 20
854.392782865117
 11
987.143640177308
 21
1040.39278286512
  0
LINE
  8
0
  6
BYLAYER
 10
987.143640177308
 20
1124.39278286512
 11
987.143640177294
 21
1281.54988088705
  0
ARC
  8
0
  6
BYLAYER
 10
1054.64364017729
 20
1446.39278286512
 40
67.5
 50
90
 51
177.602414427542
  0
LINE
  8
0
  6
BYLAYER
 10
1317.14364017728
 20
854.392782865117
 11
1317.14364017729
 21
1040.39278286512
  0
LINE
  8
0
  6
BYLAYER
 10
1317.14364017731
 20
1124.39278286512
 11
1317.14364017729
 21
1279.94833842069
  0
ARC
  8
0
  6
BYLAYER
 10
1249.64364017729
 20
1446.39278286512
 40
67.5
 50
2.39758557245847
 51
90
  0
ARC
  8
0
  6
BYLAYER
 10
1249.64364017729
 20
1446.39278286512
 40
92.5
 50
1.7493506858152
 51
90
  0
LINE
  8
0
  6
BYLAYER
 10
1249.64364017729
 20
1538.89278286512
 11
1054.64364017729
 21
1538.89278286512
  0
LINE
  8
0
  6
BYLAYER
 10
1249.64364017729
 20
1513.89278286512
 11
1054.64364017729
 21
1513.89278286512
  0
LINE
  8
0
  6
BYLAYER
 10
978.143640177294
 20
1124.39278286512
 11
1068.05797919044
 21
1124.39278286512
  0
LINE
  8
0
  6
BYLAYER
 10
1236.25571801254
 20
1124.39278286512
 11
1326.14364017729
 21
1124.39278286512
  0
LINE
  8
0
  6
BYLAYER
 10
978.143640177294
 20
1124.39278286512
 11
978.143640177294
 21
1040.39278286512
  0
LINE
  8
0
  6
BYLAYER
 10
1326.14364017729
 20
1124.39278286512
 11
1326.14364017729
 21
1040.39278286512
  0
LINE
  8
0
  6
BYLAYER
 10
978.143640177294
 20
1040.39278286512
 11
1326.14364017729
 21
1040.39278286512
  0
LINE
  8
0
  6
BYLAYER
 10
993.643640177294
 20
864.19278286512
 11
993.643640177294
 21
1040.39278286512
  0
ARC
  8
0
  6
BYLAYER
 10
987.643640177294
 20
864.19278286512
 40
6
 50
270
 51
0
  0
LINE
  8
0
  6
BYLAYER
 10
1310.64364017729
 20
864.19278286512
 11
1310.64364017729
 21
1040.39278286512
  0
ARC
  8
0
  6
BYLAYER
 10
1316.64364017729
 20
864.19278286512
 40
6
 50
180
 51
270
  0
LINE
  8
0
  6
BYLAYER
 10
1340.64364017729
 20
854.392782865117
 11
963.643640177294
 21
854.392782865117
  0
LINE
  8
0
  6
BYLAYER
 10
1340.64364017729
 20
854.392782865117
 11
1340.64364017729
 21
858.19278286512
  0
LINE
  8
0
  6
BYLAYER
 10
963.643640177294
 20
854.392782865117
 11
963.643640177294
 21
858.19278286512
  0
LINE
  8
0
  6
BYLAYER
 10
963.643640177294
 20
858.19278286512
 11
1340.64364017729
 21
858.19278286512
  0
ARC
  8
0
  6
BYLAYER
 10
1152.14364017729
 20
1367.59278286514
 40
275.000000000014
 50
254.307388693762
 51
285.692611306238
  0
ARC
  8
0
  6
BYLAYER
 10
1225.4427168941
 20
1106.69386498223
 40
4
 50
285.692611306238
 51
354.309474731551
  0
ARC
  8
0
  6
BYLAYER
 10
1152.14364017729
 20
1367.59278286514
 40
273.200000000014
 50
254.278559012775
 51
285.721440987225
  0
ARC
  8
0
  6
BYLAYER
 10
1225.62817700188
 20
1106.53826203149
 40
2
 50
285.721440987225
 51
354.288477863276
  0
ARC
  8
0
  6
BYLAYER
 10
855.143640180961
 20
1143.59278286519
 40
376.132955212969
 50
354.309474731551
 51
6.10468487712389
  0
ARC
  8
0
  6
BYLAYER
 10
855.143640180961
 20
1143.59278286519
 40
374.332955212969
 50
354.288477863276
 51
6.10468487712389
  0
ARC
  8
0
  6
BYLAYER
 10
1078.84456346048
 20
1106.69386498223
 40
4
 50
185.690525268033
 51
254.307388693762
  0
ARC
  8
0
  6
BYLAYER
 10
1078.65910335271
 20
1106.53826203149
 40
2
 50
185.711522136723
 51
254.278559011861
  0
ARC
  8
0
  6
BYLAYER
 10
1449.14364017363
 20
1143.59278286519
 40
376.132955212969
 50
173.895315122876
 51
185.690525268033
  0
ARC
  8
0
  6
BYLAYER
 10
1449.14364017363
 20
1143.59278286519
 40
374.332955212969
 50
173.895315122876
 51
185.711522136723
  0
LINE
  8
0
  6
BYLAYER
 10
925.143640177294
 20
1374.39278286512
 11
1379.14364017729
 21
1374.39278286512
  0
LINE
  8
0
  6
BYLAYER
 10
1042.14364017729
 20
1249.39278286512
 11
1063.14364017731
 21
1249.39278286514
  0
LINE
  8
0
  6
BYLAYER
 10
1264.54364017729
 20
1250.72611619845
 11
1376.05749776435
 21
1312.67825930238
  0
LINE
  8
0
  6
BYLAYER
 10
1039.74364017731
 20
1248.01946079305
 11
1039.74364017731
 21
1126.79278286513
  0
LINE
  8
0
  6
BYLAYER
 10
1264.54364017729
 20
1250.72611619847
 11
1264.54364017729
 21
1126.79278286513
  0
LINE
  8
0
  6
BYLAYER
 10
1007.64364017729
 20
1126.79278286513
 11
1039.7436401773
 21
1126.79278286512
  0
LINE
  8
0
  6
BYLAYER
 10
1042.14364017728
 20
1126.79278286513
 11
1063.14364017731
 21
1126.79278286512
  0
LINE
  8
0
  6
BYLAYER
 10
1241.14364017731
 20
1126.79278286513
 11
1296.64364017729
 21
1126.79278286513
  0
LINE
  8
0
  6
BYLAYER
 10
1042.14364017729
 20
1249.39278286512
 11
1042.14364017729
 21
1124.39278286512
  0
LINE
  8
0
  6
BYLAYER
 10
1007.64364017729
 20
1124.39278286512
 11
1007.64364017729
 21
1126.79278286513
  0
LINE
  8
0
  6
BYLAYER
 10
1296.64364017729
 20
1124.39278286512
 11
1296.64364017729
 21
1126.79278286513
  0
LINE
  8
0
  6
BYLAYER
 10
1067.14364017731
 20
1126.79278286512
 11
1067.14364017729
 21
1254.79278286513
  0
ARC
  8
0
  6
BYLAYER
 10
1069.14364017729
 20
1254.79278286513
 40
2
 50
90
 51
180
  0
LINE
  8
0
  6
BYLAYER
 10
1237.14364017732
 20
1126.79278286512
 11
1237.14364017728
 21
1254.79278286513
  0
ARC
  8
0
  6
BYLAYER
 10
1235.14364017728
 20
1254.79278286513
 40
2
 50
0
 51
90
  0
LINE
  8
0
  6
BYLAYER
 10
1379.14364017729
 20
1374.39278286512
 11
1379.14364017731
 21
1317.9232029591
  0
ARC
  8
0
  6
BYLAYER
 10
1373.14364017728
 20
1317.9232029591
 40
6
 50
299.054604098996
 51
0
  0
LINE
  8
0
  6
BYLAYER
 10
925.143640177294
 20
1384.39278286512
 11
925.143640177294
 21
1317.92320295911
  0
ARC
  8
0
  6
BYLAYER
 10
931.143640177294
 20
1317.92320295911
 40
6
 50
180
 51
240.945395901005
  0
LINE
  8
0
  6
BYLAYER
 10
926.543640177288
 20
1374.39278286512
 11
926.543640177288
 21
1317.92320295911
  0
LINE
  8
0
  6
BYLAYER
 10
1037.37759766071
 20
1252.0405842632
 11
928.229782590219
 21
1312.67825930239
  0
LINE
  8
0
  6
BYLAYER
 10
1039.05749776437
 20
1252.70884889423
 11
928.909682693875
 21
1313.90207948895
  0
ARC
  8
0
  6
BYLAYER
 10
931.143640177294
 20
1317.92320295911
 40
4.6
 50
180
 51
240.945395901005
  0
ARC
  8
0
  6
BYLAYER
 10
1035.14364017729
 20
1248.01946079305
 40
4.6
 50
0
 51
60.9453959010045
  0
ARC
  8
0
  6
BYLAYER
 10
1036.14364017729
 20
1247.4639052375
 40
6
 50
0
 51
60.9453959010045
  0
LINE
  8
0
  6
BYLAYER
 10
1235.14364017728
 20
1256.79278286513
 11
1069.14364017729
 21
1256.79278286513
  0
ARC
  8
0
  6
BYLAYER
 10
1067.14364017731
 20
1256.79278286513
 40
4
 50
90
 51
180
  0
LINE
  8
0
  6
BYLAYER
 10
1063.14364017731
 20
1126.39278286512
 11
1063.14364017731
 21
1256.79278286513
  0
ARC
  8
0
  6
BYLAYER
 10
1065.14364017731
 20
1126.39278286512
 40
2
 50
180
 51
270
  0
LINE
  8
0
  6
BYLAYER
 10
1241.14364017731
 20
1126.39278286512
 11
1241.14364017729
 21
1256.79278286513
  0
ARC
  8
0
  6
BYLAYER
 10
1239.14364017731
 20
1126.39278286512
 40
2
 50
270
 51
0
  0
ARC
  8
0
  6
BYLAYER
 10
1237.14364017729
 20
1256.79278286513
 40
4
 50
0
 51
90
  0
LINE
  8
0
  6
BYLAYER
 10
1152.14364017729
 20
1286.39278286512
 11
1152.14364017729
 21
1284.39278286512
  0
ARC
  8
0
  6
BYLAYER
 10
1152.14364017729
 20
3310.39278286519
 40
2026.00000000007
 50
267.504169552927
 51
272.495830447073
  0
LINE
  8
0
  6
BYLAYER
 10
1075.14364017732
 20
1183.59278286532
 11
1067.18850137171
 21
1255.21400994275
  0
LINE
  8
0
  6
BYLAYER
 10
1067.14364017731
 20
1260.79278286513
 11
1237.14364017731
 21
1260.79278286513
  0
LINE
  8
0
  6
BYLAYER
 10
1075.09307649558
 20
1105.30593647102
 11
1067.14364017731
 21
1126.79278286512
  0
LINE
  8
0
  6
BYLAYER
 10
1076.93343283086
 20
1183.40136119114
 11
1068.97317410349
 21
1256.78550495254
  0
LINE
  8
0
  6
BYLAYER
 10
1066.43993129703
 20
1260.73039556977
 11
1063.91805822738
 21
1286.3146601906
  0
LINE
  8
0
  6
BYLAYER
 10
1229.14364017709
 20
1183.59278286532
 11
1237.0987789827
 21
1255.21400994275
  0
LINE
  8
0
  6
BYLAYER
 10
1227.35384752355
 20
1183.40136119114
 11
1235.31410625092
 21
1256.78550495254
  0
LINE
  8
0
  6
BYLAYER
 10
1237.84734905738
 20
1260.73039556977
 11
1240.36922212704
 21
1286.31466019059
  0
LINE
  8
0
  6
BYLAYER
 10
925.143640177294
 20
1317.92320295911
 11
1377.7436401773
 21
1317.92320295911
  0
LINE
  8
0
  6
BYLAYER
 10
923.143640177294
 20
1328.39278286512
 11
923.143640177294
 21
1384.39278286512
  0
LINE
  8
0
  6
BYLAYER
 10
925.143640177294
 20
1328.39278286512
 11
923.143640177294
 21
1328.39278286512
  0
LINE
  8
0
  6
BYLAYER
 10
923.143640177308
 20
1375.39278286512
 11
918.643640177294
 21
1375.39278286512
  0
ARC
  8
0
  6
BYLAYER
 10
918.643640177294
 20
1379.89278286512
 40
4.5
 50
90
 51
270
  0
LINE
  8
0
  6
BYLAYER
 10
925.143640177294
 20
1384.39278286512
 11
916.663811476434
 21
1384.39278286512
  0
ARC
  8
0
  6
BYLAYER
 10
917.143640177294
 20
1358.39278286512
 40
3.5
 50
270
 51
90
  0
LINE
  8
0
  6
BYLAYER
 10
920.664204433078
 20
1333.19654457037
 11
913.399680664572
 21
1352.43832363391
  0
ARC
  8
0
  6
BYLAYER
 10
915.347363084058
 20
1352.89278286512
 40
2
 50
90
 51
193.134022306558
  0
LINE
  8
0
  6
BYLAYER
 10
910.472387818531
 20
1364.98386440269
 11
910.201683061225
 21
1366.14402764826
  0
ARC
  8
0
  6
BYLAYER
 10
914.367752657503
 20
1365.89278286512
 40
4
 50
193.134022306558
 51
270
  0
LINE
  8
0
  6
BYLAYER
 10
910.212006361324
 20
1366.63890112765
 11
914.736775657175
 21
1382.9280705927
  0
ARC
  8
0
  6
BYLAYER
 10
911.175524270961
 20
1366.37125726386
 40
1
 50
164.475889003335
 51
193.134022306558
  0
ARC
  8
0
  6
BYLAYER
 10
916.663811476434
 20
1382.39278286512
 40
2
 50
90
 51
164.475889003335
  0
LINE
  8
0
  6
BYLAYER
 10
917.143640177294
 20
1361.89278286512
 11
914.367752657503
 21
1361.89278286512
  0
LINE
  8
0
  6
BYLAYER
 10
917.143640177294
 20
1354.89278286512
 11
915.347363084058
 21
1354.89278286512
  0
LINE
  8
0
  6
BYLAYER
 10
923.143640177294
 20
1336.39278286512
 11
920.143640177294
 21
1316.39278286512
  0
LINE
  8
0
  6
BYLAYER
 10
920.143640177294
 20
1316.39278286512
 11
918.143640177294
 21
1316.39278286512
  0
LINE
  8
0
  6
BYLAYER
 10
918.143640177294
 20
1316.39278286512
 11
920.664204433078
 21
1333.19654457037
  0
CIRCLE
  8
0
  6
BYLAYER
 10
918.643640177294
 20
1379.89278286512
 40
1.1
  0
LINE
  8
0
  6
BYLAYER
 10
923.143640177294
 20
1372.39278286512
 11
922.843640177305
 21
1375.39278286512
  0
CIRCLE
  8
0
  6
BYLAYER
 10
920.143640177294
 20
1367.39278286512
 40
1.1
  0
LINE
  8
0
  6
BYLAYER
 10
1379.14364017729
 20
1384.39278286512
 11
1381.14364017729
 21
1384.39278286512
  0
LINE
  8
0
  6
BYLAYER
 10
1381.14364017729
 20
1328.39278286512
 11
1381.14364017729
 21
1384.39278286512
  0
LINE
  8
0
  6
BYLAYER
 10
1379.14364017729
 20
1328.39278286512
 11
1381.14364017729
 21
1328.39278286512
  0
LINE
  8
0
  6
BYLAYER
 10
1379.14364017729
 20
1384.39278286512
 11
1385.64364017729
 21
1384.39278286512
  0
LINE
  8
0
  6
BYLAYER
 10
1381.14364017728
 20
1375.39278286512
 11
1385.64364017729
 21
1375.39278286512
  0
ARC
  8
0
  6
BYLAYER
 10
1385.64364017729
 20
1379.89278286512
 40
4.5
 50
270
 51
90
  0
CIRCLE
  8
0
  6
BYLAYER
 10
1385.64364017729
 20
1379.89278286512
 40
1.1
  0
LINE
  8
0
  6
BYLAYER
 10
1384.14364017729
 20
1384.39278286512
 11
1387.62346887815
 21
1384.39278286512
  0
ARC
  8
0
  6
BYLAYER
 10
1387.14364017729
 20
1358.39278286512
 40
3.5
 50
90
 51
270
  0
LINE
  8
0
  6
BYLAYER
 10
1383.62307592151
 20
1333.19654457037
 11
1390.88759969001
 21
1352.43832363391
  0
ARC
  8
0
  6
BYLAYER
 10
1388.93991727053
 20
1352.89278286512
 40
2
 50
346.865977693442
 51
90
  0
LINE
  8
0
  6
BYLAYER
 10
1393.81489253606
 20
1364.98386440269
 11
1394.08559729336
 21
1366.14402764826
  0
ARC
  8
0
  6
BYLAYER
 10
1389.91952769708
 20
1365.89278286512
 40
4
 50
270
 51
346.865977693442
  0
LINE
  8
0
  6
BYLAYER
 10
1394.07527399326
 20
1366.63890112765
 11
1389.55050469741
 21
1382.9280705927
  0
ARC
  8
0
  6
BYLAYER
 10
1393.11175608363
 20
1366.37125726386
 40
1
 50
346.865977693442
 51
15.5241109966653
  0
ARC
  8
0
  6
BYLAYER
 10
1387.62346887815
 20
1382.39278286512
 40
2
 50
15.5241109966653
 51
90
  0
LINE
  8
0
  6
BYLAYER
 10
1387.14364017729
 20
1361.89278286512
 11
1389.91952769708
 21
1361.89278286512
  0
LINE
  8
0
  6
BYLAYER
 10
1387.14364017729
 20
1354.89278286512
 11
1388.93991727053
 21
1354.89278286512
  0
LINE
  8
0
  6
BYLAYER
 10
1381.14364017729
 20
1336.39278286512
 11
1384.14364017729
 21
1316.39278286512
  0
LINE
  8
0
  6
BYLAYER
 10
1384.14364017729
 20
1316.39278286512
 11
1386.14364017729
 21
1316.39278286512
  0
LINE
  8
0
  6
BYLAYER
 10
1386.14364017729
 20
1316.39278286512
 11
1383.62307592151
 21
1333.19654457037
  0
LINE
  8
0
  6
BYLAYER
 10
1381.14364017729
 20
1372.39278286512
 11
1381.44364017728
 21
1375.39278286512
  0
CIRCLE
  8
0
  6
BYLAYER
 10
1384.14364017729
 20
1367.39278286512
 40
1.1
  0
LINE
  8
0
  6
BYLAYER
 10
1145.64364017729
 20
1365.89570743856
 11
1158.64364017729
 21
1365.89570743856
  0
LINE
  8
0
  6
BYLAYER
 10
1141.64364017731
 20
1384.39278286512
 11
1162.64364017731
 21
1384.39278286512
  0
LINE
  8
0
  6
BYLAYER
 10
1143.14364017732
 20
1333.19654457037
 11
1145.14364017728
 21
1333.19654457037
  0
LINE
  8
0
  6
BYLAYER
 10
1159.14364017728
 20
1333.19654457036
 11
1161.14364017728
 21
1333.19654457037
  0
LINE
  8
0
  6
BYLAYER
 10
1143.14364017731
 20
1384.39278286512
 11
1143.14364017731
 21
1333.19654457037
  0
LINE
  8
0
  6
BYLAYER
 10
1161.14364017731
 20
1384.39278286512
 11
1161.14364017729
 21
1333.19654457037
  0
LINE
  8
0
  6
BYLAYER
 10
1141.64364017731
 20
1328.39278286512
 11
1145.14364017729
 21
1328.39278286512
  0
LINE
  8
0
  6
BYLAYER
 10
1159.14364017729
 20
1328.39278286512
 11
1162.64364017731
 21
1328.39278286512
  0
LINE
  8
0
  6
BYLAYER
 10
1141.64364017731
 20
1328.39278286512
 11
1141.64364017729
 21
1384.39278286512
  0
POLYLINE
  8
0
  6
BYLAYER
 10
0.0
 20
0.0
 30
0.0
 66
1
  0
VERTEX
  8
0
 10
1162.64364017731
  20
1328.39278286512
  0
VERTEX
  8
0
 10
1162.64364017731
  20
1384.39278286512
  0
SEQEND
100
AcDbEntity
  8
0
  0
LINE
  8
0
  6
BYLAYER
 10
1145.14364017729
 20
1316.39278286512
 11
1159.14364017729
 21
1316.39278286512
  0
LINE
  8
0
  6
BYLAYER
 10
1145.14364017731
 20
1384.39278286512
 11
1145.14364017729
 21
1316.39278286512
  0
LINE
  8
0
  6
BYLAYER
 10
1159.14364017731
 20
1384.39278286512
 11
1159.14364017731
 21
1316.39278286512
  0
LINE
  8
0
  6
BYLAYER
 10
1145.14364017729
 20
1354.89278286512
 11
1159.14364017729
 21
1354.89278286512
  0
LINE
  8
0
  6
BYLAYER
 10
1145.14364017729
 20
1361.89278286514
 11
1159.14364017729
 21
1361.89278286514
  0
LINE
  8
0
  6
BYLAYER
 10
1229.194203859
 20
1105.30593647102
 11
1237.14364017728
 21
1126.79278286512
  0
LINE
  8
0
  6
BYLAYER
 10
932.143640177279
 20
1449.21654755371
 11
1145.64364017729
 21
1449.21654755371
  0
LINE
  8
0
  6
BYLAYER
 10
1158.64364017731
 20
1449.21654755371
 11
1370.14364017728
 21
1449.21654755371
  0
ARC
  8
0
  6
BYLAYER
 10
1370.14364017728
 20
1445.21654755371
 40
4
 50
270
 51
90
  0
LINE
  8
0
  6
BYLAYER
 10
936.143640177279
 20
1441.21654755371
 11
936.143640177279
 21
1429.21654755371
  0
ARC
  8
0
  6
BYLAYER
 10
932.143640177279
 20
1445.21654755371
 40
4
 50
90
 51
270
  0
LINE
  8
0
  6
BYLAYER
 10
936.143640177279
 20
1429.21654755371
 11
945.774842082026
 21
1374.39278286514
  0
LINE
  8
0
  6
BYLAYER
 10
1356.51243827252
 20
1374.39278286514
 11
1366.14364017728
 21
1429.21654755371
  0
LINE
  8
0
  6
BYLAYER
 10
1357.52775198909
 20
1374.39278286514
 11
1367.12855743359
 21
1429.04352154923
  0
LINE
  8
0
  6
BYLAYER
 10
1366.14364017728
 20
1429.21654755371
 11
1366.14364017728
 21
1441.21654755371
  0
LINE
  8
0
  6
BYLAYER
 10
1367.14364017728
 20
1429.21654755371
 11
1367.14364017728
 21
1441.21654755371
  0
ARC
  8
0
  6
BYLAYER
 10
932.089498724831
 20
1447.59459854503
 40
6.5
 50
14.4497382486265
 51
161.524555517917
  0
ARC
  8
0
  6
BYLAYER
 10
932.089498724831
 20
1447.59459854503
 40
5.1
 50
18.5437820968288
 51
161.524555517917
  0
POLYLINE
  8
0
  6
BYLAYER
 10
0.0
 20
0.0
 30
0.0
 66
1
  0
VERTEX
  8
0
 10
915.181635228508
  20
1377.73046282264
  0
VERTEX
  8
0
 10
907.885021271139
  20
1395.66319606538
  0
VERTEX
  8
0
 10
925.924511605392
  20
1449.65443684378
  0
SEQEND
100
AcDbEntity
  8
0
  0
POLYLINE
  8
0
  6
BYLAYER
 10
0.0
 20
0.0
 30
0.0
 66
1
  0
VERTEX
  8
0
 10
916.055349299901
  20
1379.29782285514
  0
VERTEX
  8
0
 10
909.377050116235
  20
1395.71093700308
  0
VERTEX
  8
0
 10
927.252354984971
  20
1449.21077936405
  0
SEQEND
100
AcDbEntity
  8
0
  0
LINE
  8
0
  6
BYLAYER
 10
932.143640177279
 20
1441.21654755371
 11
1145.64364017729
 21
1441.21654755371
  0
LINE
  8
0
  6
BYLAYER
 10
1158.64364017731
 20
1441.21654755371
 11
1370.14364017728
 21
1441.21654755371
  0
ARC
  8
0
  6
BYLAYER
 10
1372.19778162973
 20
1447.59459854503
 40
6.5
 50
18.4754444816855
 51
165.550261751374
  0
ARC
  8
0
  6
BYLAYER
 10
1372.19778162973
 20
1447.59459854503
 40
5.1
 50
18.4754444816855
 51
161.456217903171
  0
POLYLINE
  8
0
  6
BYLAYER
 10
0.0
 20
0.0
 30
0.0
 66
1
  0
VERTEX
  8
0
 10
1389.10564512605
  20
1377.73046282264
  0
VERTEX
  8
0
 10
1396.40225908342
  20
1395.66319606538
  0
VERTEX
  8
0
 10
1378.36276874917
  20
1449.65443684378
  0
SEQEND
100
AcDbEntity
  8
0
  0
POLYLINE
  8
0
  6
BYLAYER
 10
0.0
 20
0.0
 30
0.0
 66
1
  0
VERTEX
  8
0
 10
1388.23193105466
  20
1379.29782285514
  0
VERTEX
  8
0
 10
1394.91023023832
  20
1395.71093700308
  0
VERTEX
  8
0
 10
1377.03492536959
  20
1449.21077936405
  0
SEQEND
100
AcDbEntity
  8
0
  0
LINE
  8
0
  6
BYLAYER
 10
1158.64364017731
 20
1365.89570743856
 11
1158.64364017732
 21
1456.97791883005
  0
LINE
  8
0
  6
BYLAYER
 10
1145.64364017731
 20
1365.89570743856
 11
1145.64364017731
 21
1456.97791883006
  0
LINE
  8
0
  6
BYLAYER
 10
1158.64364017731
 20
1456.97791883005
 11
1145.64364017729
 21
1456.97791883006
  0
LINE
  8
中心
  6
DASHDOT
 62
1
 10
1150.57806434593
 20
472.187049226036
 11
1150.57806434593
 21
1551.17692569212
  0
LINE
  8
DEFPOINTS
  6
BYLAYER
 62
5
 10
-11.2611398375461
 20
26.7153328374436
 11
4188.73886016245
 21
26.7153328374436
  0
LINE
  8
DEFPOINTS
  6
BYLAYER
 62
5
 10
4188.73886016245
 20
26.7153328374436
 11
4188.73886016245
 21
2996.41230253441
  0
LINE
  8
DEFPOINTS
  6
BYLAYER
 62
5
 10
-11.2611398375461
 20
2996.41230253441
 11
4188.73886016245
 21
2996.41230253441
  0
LINE
  8
図面枠
  6
BYLAYER
 10
2088.73886016245
 20
97.4224035445106
 11
2088.73886016245
 21
168.129474251585
  0
LINE
  8
図面枠
  6
BYLAYER
 10
59.4459308695354
 20
1511.56381768592
 11
130.153001576602
 21
1511.56381768592
  0
LINE
  8
図面枠
  6
BYLAYER
 10
4118.03178945528
 20
1511.56381768592
 11
4047.32471874822
 21
1511.56381768592
  0
LINE
  8
図面枠
  6
BYLAYER
 10
2088.73886016245
 20
2784.2910904132
 11
2088.73886016245
 21
2713.58401970613
  0
LINE
  8
図面枠
  6
BYLAYER
 10
130.153001576602
 20
2713.58401970613
 11
4047.32471874832
 21
2713.58401970613
  0
LINE
  8
図面枠
  6
BYLAYER
 10
130.153001576602
 20
168.129474251585
 11
4047.32471874822
 21
168.129474251585
  0
POLYLINE
  8
図面枠
  6
BYLAYER
 10
0.0
 20
0.0
 30
0.0
 66
1
  0
VERTEX
  8
図面枠
 10
130.153001576602
  20
2713.58401970613
  0
VERTEX
  8
図面枠
 10
130.153001576602
  20
168.129474251585
  0
SEQEND
100
AcDbEntity
  8
図面枠
  0
LINE
  8
図面枠
  6
BYLAYER
 10
4047.32471874822
 20
2713.58401970613
 11
4047.32471874822
 21
168.129474251483
  0
LINE
  8
図面枠
  6
BYLAYER
 10
2916.01158743507
 20
168.129474251585
 11
2916.01158743507
 21
875.200181322292
  0
LINE
  8
図面枠
  6
BYLAYER
 10
2916.01158743507
 20
875.200181322292
 11
4047.32471874822
 21
875.200181322292
  0
LINE
  8
図面枠
  6
BYLAYER
 10
2916.01158743507
 20
380.250686372793
 11
4047.32471874822
 21
380.250686372793
  0
LINE
  8
図面枠
  6
BYLAYER
 10
2916.01158743507
 20
521.664827786935
 11
4047.32471874822
 21
521.664827786935
  0
LINE
  8
図面枠
  6
BYLAYER
 10
2916.01158743507
 20
663.078969201076
 11
4047.32471874822
 21
663.078969201076
  0
TEXT
  8
図面枠
  6
BYLAYER
 10
3136.66815309164
 20
244.190080312193
 40
60
  1
Nakamura Seifun Co.,Ltd
  7
Font_0
 72
1
 11
3481.66815309164
 21
274.190080312193
 73
2
  0
TEXT
  8
図面枠
  6
BYLAYER
 10
2943.57348248185
 20
816.733943299421
 40
33.9393939393939
  1
d
  7
Font_0
 11
2943.57348248185
 21
850.673337238815
 73
3
  0
TEXT
  8
図面枠
  6
BYLAYER
 10
2960.54317945155
 20
816.733943299421
 40
33.9393939393939
  1
r
  7
Font_0
 11
2960.54317945155
 21
850.673337238815
 73
3
  0
TEXT
  8
図面枠
  6
BYLAYER
 10
2977.51287642124
 20
816.733943299421
 40
33.9393939393939
  1
a
  7
Font_0
 11
2977.51287642124
 21
850.673337238815
 73
3
  0
TEXT
  8
図面枠
  6
BYLAYER
 10
2994.48257339094
 20
816.733943299421
 40
33.9393939393939
  1
w
  7
Font_0
 11
2994.48257339094
 21
850.673337238815
 73
3
  0
TEXT
  8
図面枠
  6
BYLAYER
 10
3011.45227036064
 20
816.733943299421
 40
33.9393939393939
  1
i
  7
Font_0
 11
3011.45227036064
 21
850.673337238815
 73
3
  0
TEXT
  8
図面枠
  6
BYLAYER
 10
3028.42196733033
 20
816.733943299421
 40
33.9393939393939
  1
n
  7
Font_0
 11
3028.42196733033
 21
850.673337238815
 73
3
  0
TEXT
  8
図面枠
  6
BYLAYER
 10
3045.39166430003
 20
816.733943299421
 40
33.9393939393939
  1
g
  7
Font_0
 11
3045.39166430003
 21
850.673337238815
 73
3
  0
TEXT
  8
図面枠
  6
BYLAYER
 10
3096.30075520912
 20
816.733943299421
 40
33.9393939393939
  1
　
  7
Font_0
 50
-270
 11
3062.36136126973
 21
816.733943299421
 73
3
  0
TEXT
  8
図面枠
  6
BYLAYER
 10
3096.30075520912
 20
816.733943299421
 40
33.9393939393939
  1
n
  7
Font_0
 11
3096.30075520912
 21
850.673337238815
 73
3
  0
TEXT
  8
図面枠
  6
BYLAYER
 10
3113.27045217882
 20
816.733943299421
 40
33.9393939393939
  1
a
  7
Font_0
 11
3113.27045217882
 21
850.673337238815
 73
3
  0
TEXT
  8
図面枠
  6
BYLAYER
 10
3130.24014914852
 20
816.733943299421
 40
33.9393939393939
  1
m
  7
Font_0
 11
3130.24014914852
 21
850.673337238815
 73
3
  0
TEXT
  8
図面枠
  6
BYLAYER
 10
3147.20984611821
 20
816.733943299421
 40
33.9393939393939
  1
e
  7
Font_0
 11
3147.20984611821
 21
850.673337238815
 73
3
  0
TEXT
  8
図面枠
  6
BYLAYER
 10
3227.1226985462
 20
616.937555059663
 40
32
  1
s
  7
Font_0
 11
3227.1226985462
 21
648.937555059663
 73
3
  0
TEXT
  8
図面枠
  6
BYLAYER
 10
3243.1226985462
 20
616.937555059663
 40
32
  1
c
  7
Font_0
 11
3243.1226985462
 21
648.937555059663
 73
3
  0
TEXT
  8
図面枠
  6
BYLAYER
 10
3259.1226985462
 20
616.937555059663
 40
32
  1
a
  7
Font_0
 11
3259.1226985462
 21
648.937555059663
 73
3
  0
TEXT
  8
図面枠
  6
BYLAYER
 10
3275.1226985462
 20
616.937555059663
 40
32
  1
l
  7
Font_0
 11
3275.1226985462
 21
648.937555059663
 73
3
  0
TEXT
  8
図面枠
  6
BYLAYER
 10
3291.1226985462
 20
616.937555059663
 40
32
  1
e
  7
Font_0
 11
3291.1226985462
 21
648.937555059663
 73
3
  0
TEXT
  8
図面枠
  6
BYLAYER
 10
3791.89837952411
 20
613.581717805925
 40
32
  1
d
  7
Font_0
 11
3791.89837952411
 21
645.581717805925
 73
3
  0
TEXT
  8
図面枠
  6
BYLAYER
 10
3807.89837952411
 20
613.581717805925
 40
32
  1
r
  7
Font_0
 11
3807.89837952411
 21
645.581717805925
 73
3
  0
TEXT
  8
図面枠
  6
BYLAYER
 10
3823.89837952411
 20
613.581717805925
 40
32
  1
a
  7
Font_0
 11
3823.89837952411
 21
645.581717805925
 73
3
  0
TEXT
  8
図面枠
  6
BYLAYER
 10
3839.89837952411
 20
613.581717805925
 40
32
  1
w
  7
Font_0
 11
3839.89837952411
 21
645.581717805925
 73
3
  0
TEXT
  8
図面枠
  6
BYLAYER
 10
3855.89837952411
 20
613.581717805925
 40
32
  1
i
  7
Font_0
 11
3855.89837952411
 21
645.581717805925
 73
3
  0
TEXT
  8
図面枠
  6
BYLAYER
 10
3871.89837952411
 20
613.581717805925
 40
32
  1
n
  7
Font_0
 11
3871.89837952411
 21
645.581717805925
 73
3
  0
TEXT
  8
図面枠
  6
BYLAYER
 10
3887.89837952411
 20
613.581717805925
 40
32
  1
g
  7
Font_0
 11
3887.89837952411
 21
645.581717805925
 73
3
  0
TEXT
  8
図面枠
  6
BYLAYER
 10
3935.89837952411
 20
613.581717805925
 40
32
  1
　
  7
Font_0
 50
-270
 11
3903.89837952411
 21
613.581717805925
 73
3
  0
TEXT
  8
図面枠
  6
BYLAYER
 10
3935.89837952411
 20
613.581717805925
 40
32
  1
n
  7
Font_0
 11
3935.89837952411
 21
645.581717805925
 73
3
  0
TEXT
  8
図面枠
  6
BYLAYER
 10
3951.89837952411
 20
613.581717805925
 40
32
  1
o
  7
Font_0
 11
3951.89837952411
 21
645.581717805925
 73
3
  0
TEXT
  8
図面枠
  6
BYLAYER
 10
3967.89837952411
 20
613.581717805925
 40
32
  1
.
  7
Font_0
 11
3967.89837952411
 21
645.581717805925
 73
3
  0
TEXT
  8
図面枠
  6
BYLAYER
 10
2944.29441571781
 20
475.523413645521
 40
32
  1
a
  7
Font_0
 11
2944.29441571781
 21
507.523413645521
 73
3
  0
TEXT
  8
図面枠
  6
BYLAYER
 10
2960.29441571781
 20
475.523413645521
 40
32
  1
p
  7
Font_0
 11
2960.29441571781
 21
507.523413645521
 73
3
  0
TEXT
  8
図面枠
  6
BYLAYER
 10
2976.29441571781
 20
475.523413645521
 40
32
  1
p
  7
Font_0
 11
2976.29441571781
 21
507.523413645521
 73
3
  0
TEXT
  8
図面枠
  6
BYLAYER
 10
2992.29441571781
 20
475.523413645521
 40
32
  1
r
  7
Font_0
 11
2992.29441571781
 21
507.523413645521
 73
3
  0
TEXT
  8
図面枠
  6
BYLAYER
 10
3008.29441571781
 20
475.523413645521
 40
32
  1
o
  7
Font_0
 11
3008.29441571781
 21
507.523413645521
 73
3
  0
TEXT
  8
図面枠
  6
BYLAYER
 10
3024.29441571781
 20
475.523413645521
 40
32
  1
v
  7
Font_0
 11
3024.29441571781
 21
507.523413645521
 73
3
  0
TEXT
  8
図面枠
  6
BYLAYER
 10
3040.29441571781
 20
475.523413645521
 40
32
  1
e
  7
Font_0
 11
3040.29441571781
 21
507.523413645521
 73
3
  0
TEXT
  8
図面枠
  6
BYLAYER
 10
3056.29441571781
 20
475.523413645521
 40
32
  1
d
  7
Font_0
 11
3056.29441571781
 21
507.523413645521
 73
3
  0
TEXT
  8
図面枠
  6
BYLAYER
 10
3227.1226985462
 20
475.523413645521
 40
32
  1
c
  7
Font_0
 11
3227.1226985462
 21
507.523413645521
 73
3
  0
TEXT
  8
図面枠
  6
BYLAYER
 10
3243.1226985462
 20
475.523413645521
 40
32
  1
h
  7
Font_0
 11
3243.1226985462
 21
507.523413645521
 73
3
  0
TEXT
  8
図面枠
  6
BYLAYER
 10
3259.1226985462
 20
475.523413645521
 40
32
  1
e
  7
Font_0
 11
3259.1226985462
 21
507.523413645521
 73
3
  0
TEXT
  8
図面枠
  6
BYLAYER
 10
3275.1226985462
 20
475.523413645521
 40
32
  1
c
  7
Font_0
 11
3275.1226985462
 21
507.523413645521
 73
3
  0
TEXT
  8
図面枠
  6
BYLAYER
 10
3291.1226985462
 20
475.523413645521
 40
32
  1
k
  7
Font_0
 11
3291.1226985462
 21
507.523413645521
 73
3
  0
TEXT
  8
図面枠
  6
BYLAYER
 10
3307.1226985462
 20
475.523413645521
 40
32
  1
e
  7
Font_0
 11
3307.1226985462
 21
507.523413645521
 73
3
  0
TEXT
  8
図面枠
  6
BYLAYER
 10
3323.1226985462
 20
475.523413645521
 40
32
  1
d
  7
Font_0
 11
3323.1226985462
 21
507.523413645521
 73
3
  0
TEXT
  8
図面枠
  6
BYLAYER
 10
3509.95098137458
 20
475.188510053481
 40
32
  1
d
  7
Font_0
 11
3509.95098137458
 21
507.188510053481
 73
3
  0
TEXT
  8
図面枠
  6
BYLAYER
 10
3525.95098137458
 20
475.188510053481
 40
32
  1
e
  7
Font_0
 11
3525.95098137458
 21
507.188510053481
 73
3
  0
TEXT
  8
図面枠
  6
BYLAYER
 10
3541.95098137458
 20
475.188510053481
 40
32
  1
s
  7
Font_0
 11
3541.95098137458
 21
507.188510053481
 73
3
  0
TEXT
  8
図面枠
  6
BYLAYER
 10
3557.95098137458
 20
475.188510053481
 40
32
  1
i
  7
Font_0
 11
3557.95098137458
 21
507.188510053481
 73
3
  0
TEXT
  8
図面枠
  6
BYLAYER
 10
3573.95098137458
 20
475.188510053481
 40
32
  1
g
  7
Font_0
 11
3573.95098137458
 21
507.188510053481
 73
3
  0
TEXT
  8
図面枠
  6
BYLAYER
 10
3589.95098137458
 20
475.188510053481
 40
32
  1
n
  7
Font_0
 11
3589.95098137458
 21
507.188510053481
 73
3
  0
TEXT
  8
図面枠
  6
BYLAYER
 10
3605.95098137458
 20
475.188510053481
 40
32
  1
e
  7
Font_0
 11
3605.95098137458
 21
507.188510053481
 73
3
  0
TEXT
  8
図面枠
  6
BYLAYER
 10
3621.95098137458
 20
475.188510053481
 40
32
  1
d
  7
Font_0
 11
3621.95098137458
 21
507.188510053481
 73
3
  0
TEXT
  8
図面枠
  6
BYLAYER
 10
3792.77926420276
 20
475.523413645521
 40
32
  1
d
  7
Font_0
 11
3792.77926420276
 21
507.523413645521
 73
3
  0
TEXT
  8
図面枠
  6
BYLAYER
 10
3808.77926420276
 20
475.523413645521
 40
32
  1
r
  7
Font_0
 11
3808.77926420276
 21
507.523413645521
 73
3
  0
TEXT
  8
図面枠
  6
BYLAYER
 10
3824.77926420276
 20
475.523413645521
 40
32
  1
a
  7
Font_0
 11
3824.77926420276
 21
507.523413645521
 73
3
  0
TEXT
  8
図面枠
  6
BYLAYER
 10
3840.77926420276
 20
475.523413645521
 40
32
  1
w
  7
Font_0
 11
3840.77926420276
 21
507.523413645521
 73
3
  0
TEXT
  8
図面枠
  6
BYLAYER
 10
3856.77926420276
 20
475.523413645521
 40
32
  1
n
  7
Font_0
 11
3856.77926420276
 21
507.523413645521
 73
3
  0
TEXT
  8
図面枠
  6
BYLAYER
 10
3509.95098137448
 20
616.937555059663
 40
32
  1
d
  7
Font_0
 11
3509.95098137448
 21
648.937555059663
 73
3
  0
TEXT
  8
図面枠
  6
BYLAYER
 10
3525.95098137448
 20
616.937555059663
 40
32
  1
a
  7
Font_0
 11
3525.95098137448
 21
648.937555059663
 73
3
  0
TEXT
  8
図面枠
  6
BYLAYER
 10
3541.95098137448
 20
616.937555059663
 40
32
  1
t
  7
Font_0
 11
3541.95098137448
 21
648.937555059663
 73
3
  0
TEXT
  8
図面枠
  6
BYLAYER
 10
3557.95098137448
 20
616.937555059663
 40
32
  1
e
  7
Font_0
 11
3557.95098137448
 21
648.937555059663
 73
3
  0
LINE
  8
図面枠
  6
BYLAYER
 10
3198.83987026335
 20
380.250686372793
 11
3198.83987026335
 21
663.078969201076
  0
LINE
  8
図面枠
  6
BYLAYER
 10
3481.66815309164
 20
380.250686372793
 11
3481.66815309164
 21
663.078969201076
  0
LINE
  8
図面枠
  6
BYLAYER
 10
3764.49643591993
 20
380.250686372793
 11
3764.49643591993
 21
663.078969201076
  0
TEXT
  8
図面枠
  6
BYLAYER
 10
2944.2944157179
 20
614.348829933947
 40
32
  1
p
  7
Font_0
 11
2944.2944157179
 21
646.348829933947
 73
3
  0
TEXT
  8
図面枠
  6
BYLAYER
 10
2960.2944157179
 20
614.348829933947
 40
32
  1
r
  7
Font_0
 11
2960.2944157179
 21
646.348829933947
 73
3
  0
TEXT
  8
図面枠
  6
BYLAYER
 10
2976.2944157179
 20
614.348829933947
 40
32
  1
o
  7
Font_0
 11
2976.2944157179
 21
646.348829933947
 73
3
  0
TEXT
  8
図面枠
  6
BYLAYER
 10
2992.2944157179
 20
614.348829933947
 40
32
  1
j
  7
Font_0
 11
2992.2944157179
 21
646.348829933947
 73
3
  0
TEXT
  8
図面枠
  6
BYLAYER
 10
3008.2944157179
 20
614.348829933947
 40
32
  1
e
  7
Font_0
 11
3008.2944157179
 21
646.348829933947
 73
3
  0
TEXT
  8
図面枠
  6
BYLAYER
 10
3024.2944157179
 20
614.348829933947
 40
32
  1
c
  7
Font_0
 11
3024.2944157179
 21
646.348829933947
 73
3
  0
TEXT
  8
図面枠
  6
BYLAYER
 10
3040.2944157179
 20
614.348829933947
 40
32
  1
t
  7
Font_0
 11
3040.2944157179
 21
646.348829933947
 73
3
  0
TEXT
  8
図面枠
  6
BYLAYER
 10
3056.2944157179
 20
614.348829933947
 40
32
  1
i
  7
Font_0
 11
3056.2944157179
 21
646.348829933947
 73
3
  0
TEXT
  8
図面枠
  6
BYLAYER
 10
3072.2944157179
 20
614.348829933947
 40
32
  1
o
  7
Font_0
 11
3072.2944157179
 21
646.348829933947
 73
3
  0
TEXT
  8
図面枠
  6
BYLAYER
 10
3088.2944157179
 20
614.348829933947
 40
32
  1
n
  7
Font_0
 11
3088.2944157179
 21
646.348829933947
 73
3
  0
LINE
  8
寸法
  6
BYLAYER
 62
1
 10
987.943640177297
 20
529.392782865117
 11
637.885021271227
 21
529.392782865117
  0
LINE
  8
寸法
  6
BYLAYER
 62
1
 10
1044.64364017729
 20
1538.89278286512
 11
637.885021271226
 21
1538.89278286512
  0
LINE
  8
寸法
  6
BYLAYER
 62
1
 10
657.885021271227
 20
549.392782865117
 11
657.885021271226
 21
1518.89278286512
  0
SOLID
  8
0
 62
1
 10
657.885021271227
 20
529.392782865117
 30
0.0
 11
661.21835460456
 21
549.392782865117
 31
0.0
 12
654.551687937893
 22
549.392782865117
 32
0.0
 13
654.551687937893
 23
549.392782865117
 33
0.0
  0
SOLID
  8
0
 62
1
 10
654.551687937893
 20
1518.89278286512
 30
0.0
 11
661.21835460456
 21
1518.89278286512
 31
0.0
 12
657.885021271226
 22
1538.89278286512
 32
0.0
 13
657.885021271226
 23
1538.89278286512
 33
0.0
  0
TEXT
  8
寸法
 62
1
  6
BYLAYER
 62
1
 10
647.885021271227
 20
1002.14278286512
 40
32
  1
1010
  7
Font_0
 50
90
 72
1
 11
631.885021271227
 21
1034.14278286512
 73
2
  0
LINE
  8
寸法
  6
BYLAYER
 62
1
 10
1933.00000000001
 20
529.392782865117
 11
1708.38000000018
 21
529.392782865117
  0
LINE
  8
寸法
  6
BYLAYER
 62
1
 10
1818
 20
1094.39278286512
 11
1708.38000000018
 21
1094.39278286512
  0
LINE
  8
寸法
  6
BYLAYER
 62
1
 10
1728.38000000018
 20
549.392782865117
 11
1728.38000000018
 21
1074.39278286512
  0
SOLID
  8
0
 62
1
 10
1728.38000000018
 20
529.392782865117
 30
0.0
 11
1731.71333333351
 21
549.392782865117
 31
0.0
 12
1725.04666666685
 22
549.392782865117
 32
0.0
 13
1725.04666666685
 23
549.392782865117
 33
0.0
  0
SOLID
  8
0
 62
1
 10
1725.04666666684
 20
1074.39278286512
 30
0.0
 11
1731.71333333351
 21
1074.39278286512
 31
0.0
 12
1728.38000000018
 22
1094.39278286512
 32
0.0
 13
1728.38000000018
 23
1094.39278286512
 33
0.0
  0
TEXT
  8
寸法
 62
1
  6
BYLAYER
 62
1
 10
1718.38000000018
 20
787.892782865117
 40
32
  1
565
  7
Font_0
 50
90
 72
1
 11
1702.38000000018
 21
811.892782865117
 73
2
  0
LINE
  8
寸法
  6
BYLAYER
 62
1
 10
962.143640177294
 20
556.892782865117
 11
962.143640177294
 21
334.392782865117
  0
LINE
  8
寸法
  6
BYLAYER
 62
1
 10
1342.14364017729
 20
556.892782865117
 11
1342.14364017729
 21
334.392782865117
  0
LINE
  8
寸法
  6
BYLAYER
 62
1
 10
982.143640177294
 20
354.392782865117
 11
1322.14364017729
 21
354.392782865117
  0
SOLID
  8
0
 62
1
 10
962.143640177294
 20
354.392782865117
 30
0.0
 11
982.143640177294
 21
351.059449531784
 31
0.0
 12
982.143640177294
 22
357.72611619845
 32
0.0
 13
982.143640177294
 23
357.72611619845
 33
0.0
  0
SOLID
  8
0
 62
1
 10
1322.14364017729
 20
357.72611619845
 30
0.0
 11
1322.14364017729
 21
351.059449531784
 31
0.0
 12
1342.14364017729
 22
354.392782865117
 32
0.0
 13
1342.14364017729
 23
354.392782865117
 33
0.0
  0
TEXT
  8
寸法
 62
1
  6
BYLAYER
 62
1
 10
1128.14364017729
 20
364.392782865117
 40
32
  1
380
  7
Font_0
 72
1
 11
1152.14364017729
 21
380.392782865117
 73
2
  0
LINE
  8
寸法
  6
BYLAYER
 62
1
 10
973.943640177297
 20
529.392782865117
 11
787.885021271226
 21
529.392782865117
  0
LINE
  8
寸法
  6
BYLAYER
 62
1
 10
951.169783394579
 20
854.362200426632
 11
787.885021271226
 21
854.362200426632
  0
LINE
  8
寸法
  6
BYLAYER
 62
1
 10
807.885021271226
 20
549.392782865117
 11
807.885021271226
 21
834.362200426632
  0
SOLID
  8
0
 62
1
 10
807.885021271226
 20
529.392782865117
 30
0.0
 11
811.21835460456
 21
549.392782865117
 31
0.0
 12
804.551687937893
 22
549.392782865117
 32
0.0
 13
804.551687937893
 23
549.392782865117
 33
0.0
  0
SOLID
  8
0
 62
1
 10
804.551687937893
 20
834.362200426632
 30
0.0
 11
811.21835460456
 21
834.362200426632
 31
0.0
 12
807.885021271226
 22
854.362200426632
 32
0.0
 13
807.885021271226
 23
854.362200426632
 33
0.0
  0
TEXT
  8
寸法
 62
1
  6
BYLAYER
 62
1
 10
797.885021271226
 20
667.877491645874
 40
32
  1
325
  7
Font_0
 50
90
 72
1
 11
781.885021271226
 21
691.877491645874
 73
2
  0
LINE
  8
寸法
  6
BYLAYER
 62
1
 10
1828
 20
1084.39278286512
 11
1828
 21
334.392782865117
  0
LINE
  8
寸法
  6
BYLAYER
 62
1
 10
1848
 20
354.392782865117
 11
2080.00000000001
 21
354.392782865117
  0
SOLID
  8
0
 62
1
 10
1828
 20
354.392782865117
 30
0.0
 11
1848
 21
351.059449531784
 31
0.0
 12
1848
 22
357.72611619845
 32
0.0
 13
1848
 23
357.72611619845
 33
0.0
  0
SOLID
  8
0
 62
1
 10
2080.00000000001
 20
357.72611619845
 30
0.0
 11
2080.00000000001
 21
351.059449531784
 31
0.0
 12
2100.00000000001
 22
354.392782865117
 32
0.0
 13
2100.00000000001
 23
354.392782865117
 33
0.0
  0
TEXT
  8
寸法
 62
1
  6
BYLAYER
 62
1
 10
1940.00000000001
 20
364.392782865117
 40
32
  1
272
  7
Font_0
 72
1
 11
1964.00000000001
 21
380.392782865117
 73
2
  0
LINE
  8
寸法
  6
BYLAYER
 62
1
 10
2251.12401193626
 20
2310.02683954213
 11
1948.87598806373
 21
2063.55953529034
  0
TEXT
  8
寸法
 62
1
  6
BYLAYER
 62
1
 10
2133.82159457096
 20
2231.37297657619
 40
32
  1
φ430
  7
Font_0
 50
39.1954268147859
 72
1
 11
2154.70991274243
 21
2269.05159337627
 73
2
  0
SOLID
  8
0
 62
1
 10
2249.01745378026
 20
2312.61015598548
 30
0.0
 11
2253.23057009226
 21
2307.44352309877
 31
0.0
 12
2266.62391059639
 22
2322.66618847811
 32
0.0
 13
2266.62391059639
 23
2322.66618847811
 33
0.0
  0
SOLID
  8
0
 62
1
 10
1933.3760894036
 20
2050.92018635435
 30
0.0
 11
1950.98254621973
 21
2060.97621884698
 31
0.0
 12
1946.76942990773
 22
2066.14285173369
 32
0.0
 13
1946.76942990773
 23
2066.14285173369
 33
0.0
  0
LINE
  8
寸法
  6
BYLAYER
 62
1
 10
973.943640177297
 20
529.392782865117
 11
712.885021271227
 21
529.392782865117
  0
LINE
  8
寸法
  6
BYLAYER
 62
1
 10
928.383883636255
 20
1449.21654755371
 11
712.885021271226
 21
1449.21654755371
  0
LINE
  8
寸法
  6
BYLAYER
 62
1
 10
732.885021271227
 20
549.392782865117
 11
732.885021271226
 21
1429.21654755371
  0
SOLID
  8
0
 62
1
 10
732.885021271227
 20
529.392782865117
 30
0.0
 11
736.21835460456
 21
549.392782865117
 31
0.0
 12
729.551687937893
 22
549.392782865117
 32
0.0
 13
729.551687937893
 23
549.392782865117
 33
0.0
  0
SOLID
  8
0
 62
1
 10
729.551687937893
 20
1429.21654755371
 30
0.0
 11
736.21835460456
 21
1429.21654755371
 31
0.0
 12
732.885021271226
 22
1449.21654755371
 32
0.0
 13
732.885021271226
 23
1449.21654755371
 33
0.0
  0
TEXT
  8
寸法
 62
1
  6
BYLAYER
 62
1
 10
722.885021271227
 20
965.304665209412
 40
32
  1
920
  7
Font_0
 50
90
 72
1
 11
706.885021271227
 21
989.304665209412
 73
2
  0
LINE
  8
寸法
  6
BYLAYER
 62
1
 10
1828
 20
1084.39278286512
 11
1828
 21
409.392782865117
  0
LINE
  8
寸法
  6
BYLAYER
 62
1
 10
1908.6
 20
831.892782865117
 11
1908.6
 21
409.392782865117
  0
LINE
  8
寸法
  6
BYLAYER
 62
1
 10
1848
 20
429.392782865117
 11
1888.6
 21
429.392782865117
  0
SOLID
  8
0
 62
1
 10
1828
 20
429.392782865117
 30
0.0
 11
1848
 21
426.059449531784
 31
0.0
 12
1848
 22
432.72611619845
 32
0.0
 13
1848
 23
432.72611619845
 33
0.0
  0
SOLID
  8
0
 62
1
 10
1888.6
 20
432.72611619845
 30
0.0
 11
1888.6
 21
426.059449531784
 31
0.0
 12
1908.6
 22
429.392782865117
 32
0.0
 13
1908.6
 23
429.392782865117
 33
0.0
  0
TEXT
  8
寸法
 62
1
  6
BYLAYER
 62
1
 10
1852.3
 20
439.392782865117
 40
32
  1
81
  7
Font_0
 72
1
 11
1868.3
 21
455.392782865117
 73
2
  0
LINE
  8
寸法
  6
BYLAYER
 62
1
 10
1078.65910335271
 20
1096.53826203149
 11
1078.65910335271
 21
941.240456030722
  0
LINE
  8
寸法
  6
BYLAYER
 62
1
 10
1227.61824815525
 20
1096.33922232573
 11
1227.61824815525
 21
941.240456030722
  0
LINE
  8
寸法
  6
BYLAYER
 62
1
 10
1098.65910335271
 20
961.240456030722
 11
1207.61824815525
 21
961.240456030722
  0
SOLID
  8
0
 62
1
 10
1078.65910335271
 20
961.240456030722
 30
0.0
 11
1098.65910335271
 21
957.907122697388
 31
0.0
 12
1098.65910335271
 22
964.573789364055
 32
0.0
 13
1098.65910335271
 23
964.573789364055
 33
0.0
  0
SOLID
  8
0
 62
1
 10
1207.61824815525
 20
964.573789364055
 30
0.0
 11
1207.61824815525
 21
957.907122697388
 31
0.0
 12
1227.61824815525
 22
961.240456030722
 32
0.0
 13
1227.61824815525
 23
961.240456030722
 33
0.0
  0
TEXT
  8
寸法
 62
1
  6
BYLAYER
 62
1
 10
1097.13867575398
 20
971.240456030722
 40
32
  1
（150）
  7
Font_0
 72
1
 11
1153.13867575398
 21
987.240456030722
 73
2
  0
LINE
  8
寸法
  6
BYLAYER
 62
1
 10
1818.73217610075
 20
1094.68987002642
 11
1708.00000000017
 21
1094.68987002642
  0
LINE
  8
寸法
  6
BYLAYER
 62
1
 10
1818
 20
1179.39278286512
 11
1708.00000000017
 21
1179.39278286512
  0
LINE
  8
寸法
  6
BYLAYER
 62
1
 10
1728.00000000017
 20
1114.68987002642
 11
1728.00000000017
 21
1159.39278286512
  0
SOLID
  8
0
 62
1
 10
1728.00000000017
 20
1094.68987002642
 30
0.0
 11
1731.33333333351
 21
1114.68987002642
 31
0.0
 12
1724.66666666684
 22
1114.68987002642
 32
0.0
 13
1724.66666666684
 23
1114.68987002642
 33
0.0
  0
SOLID
  8
0
 62
1
 10
1724.66666666684
 20
1159.39278286512
 30
0.0
 11
1731.33333333351
 21
1159.39278286512
 31
0.0
 12
1728.00000000017
 22
1179.39278286512
 32
0.0
 13
1728.00000000017
 23
1179.39278286512
 33
0.0
  0
TEXT
  8
寸法
 62
1
  6
BYLAYER
 62
1
 10
1718.00000000017
 20
1121.04132644577
 40
32
  1
85
  7
Font_0
 50
90
 72
1
 11
1702.00000000017
 21
1137.04132644577
 73
2
  0
LINE
  8
寸法
  6
BYLAYER
 62
1
 10
2120.50000000001
 20
1944.79318741623
 11
2574.58517095198
 21
1944.79318741623
  0
LINE
  8
寸法
  6
BYLAYER
 62
1
 10
2119.00000000001
 20
2428.79318741623
 11
2574.58517095198
 21
2428.79318741623
  0
LINE
  8
寸法
  6
BYLAYER
 62
1
 10
2554.58517095198
 20
1964.79318741623
 11
2554.58517095198
 21
2408.79318741623
  0
SOLID
  8
0
 62
1
 10
2554.58517095198
 20
1944.79318741623
 30
0.0
 11
2557.91850428531
 21
1964.79318741623
 31
0.0
 12
2551.25183761864
 22
1964.79318741623
 32
0.0
 13
2551.25183761864
 23
1964.79318741623
 33
0.0
  0
SOLID
  8
0
 62
1
 10
2551.25183761864
 20
2408.79318741623
 30
0.0
 11
2557.91850428531
 21
2408.79318741623
 31
0.0
 12
2554.58517095198
 22
2428.79318741623
 32
0.0
 13
2554.58517095198
 23
2428.79318741623
 33
0.0
  0
TEXT
  8
寸法
 62
1
  6
BYLAYER
 62
1
 10
2544.58517095198
 20
2146.79318741623
 40
32
  1
(484)
  7
Font_0
 50
90
 72
1
 11
2528.58517095198
 21
2186.79318741623
 73
2
  0
LINE
  8
寸法
  6
BYLAYER
 62
1
 10
1828
 20
2273.79318741623
 11
1828
 21
2553.51539970441
  0
LINE
  8
寸法
  6
BYLAYER
 62
1
 10
2432.66479289625
 20
2344.29318741624
 11
2432.66479289625
 21
2553.51539970441
  0
LINE
  8
寸法
  6
BYLAYER
 62
1
 10
1848
 20
2533.51539970441
 11
2412.66479289625
 21
2533.51539970441
  0
SOLID
  8
0
 62
1
 10
1828
 20
2533.51539970441
 30
0.0
 11
1848
 21
2530.18206637107
 31
0.0
 12
1848
 22
2536.84873303774
 32
0.0
 13
1848
 23
2536.84873303774
 33
0.0
  0
SOLID
  8
0
 62
1
 10
2412.66479289625
 20
2536.84873303774
 30
0.0
 11
2412.66479289625
 21
2530.18206637107
 31
0.0
 12
2432.66479289625
 22
2533.51539970441
 32
0.0
 13
2432.66479289625
 23
2533.51539970441
 33
0.0
  0
TEXT
  8
寸法
 62
1
  6
BYLAYER
 62
1
 10
2106.33239644812
 20
2543.51539970441
 40
32
  1
605
  7
Font_0
 72
1
 11
2130.33239644812
 21
2559.51539970441
 73
2
  0
TEXT
  8
0
  6
BYLAYER
 10
2927.87851647662
 20
2142.57505180218
 40
48
  1
主な仕様
  7
Font_0
  0
TEXT
  8
0
  6
BYLAYER
 10
2927.87851647662
 20
2052.57505180218
 40
48
  1
・電源　AC100V　50/60Hz　400W
  7
Font_0
  0
TEXT
  8
0
  6
BYLAYER
 10
2927.87851647662
 20
1962.57505180218
 40
48
  1
・主要部材　SUS304
  7
Font_0
  0
TEXT
  8
0
  6
BYLAYER
 10
2927.87851647662
 20
1872.57505180218
 40
48
  1
・ふるい　NW型網枠 or NF型枠　
  7
Font_0
  0
TEXT
  8
図面枠
  6
BYLAYER
 10
3193.66815309164
 20
705.139575261786
 40
48
  1
小型振動ふるい機　MS-123
  7
Font_0
 72
1
 11
3481.66815309164
 21
729.139575261786
 73
2
  0
LINE
  8
0
  6
BYLAYER
 10
933.143640177308
 20
2409.54573447988
 11
1371.14364017731
 21
2409.54573447988
  0
ARC
  8
0
  6
BYLAYER
 10
1371.14364017731
 20
2405.54573447988
 40
4
 50
270
 51
90
  0
LINE
  8
0
  6
BYLAYER
 10
937.143640177323
 20
2401.54573447988
 11
937.143640177308
 21
2389.54573447988
  0
LINE
  8
0
  6
BYLAYER
 10
950.143640177308
 20
2281.54573447987
 11
950.143640177308
 21
2315.54573447988
  0
LINE
  8
0
  6
BYLAYER
 10
1354.14364017729
 20
2281.54573447988
 11
1354.14364017731
 21
2315.54573447988
  0
LINE
  8
0
  6
BYLAYER
 10
1355.14364017731
 20
2281.54573447988
 11
1355.14364017731
 21
2315.54573447988
  0
LINE
  8
0
  6
BYLAYER
 10
1375.14364017731
 20
2279.54573447987
 11
1375.14364017731
 21
2275.54573447988
  0
ARC
  8
0
  6
BYLAYER
 10
1373.14364017731
 20
2279.54573447987
 40
2
 50
0
 51
90
  0
ARC
  8
0
  6
BYLAYER
 10
933.143640177308
 20
2405.54573447988
 40
4
 50
90
 51
270
  0
LINE
  8
0
  6
BYLAYER
 10
950.143640177308
 20
2315.54573447988
 11
1354.14364017731
 21
2315.54573447988
  0
LINE
  8
0
  6
BYLAYER
 10
937.143640177294
 20
2389.54573447988
 11
1368.12855743362
 21
2389.37270847539
  0
LINE
  8
0
  6
BYLAYER
 10
937.143640177308
 20
2389.54573447988
 11
950.143640177308
 21
2315.54573447988
  0
LINE
  8
0
  6
BYLAYER
 10
1355.12855743362
 20
2315.37270847539
 11
1368.12855743362
 21
2389.37270847539
  0
LINE
  8
0
  6
BYLAYER
 10
1376.14364017729
 20
2275.54573447987
 11
929.143640177323
 21
2275.54573447988
  0
LINE
  8
0
  6
BYLAYER
 10
1374.14364017731
 20
2275.54573447989
 11
1375.14364017731
 21
2275.54573447988
  0
LINE
  8
0
  6
BYLAYER
 10
929.143640177308
 20
2281.54573447987
 11
1365.95324878611
 21
2281.54573447988
  0
LINE
  8
0
  6
BYLAYER
 10
1365.95324878611
 20
2281.54573447988
 11
1373.14364017731
 21
2281.54573447987
  0
LINE
  8
0
  6
BYLAYER
 10
929.143640177308
 20
2281.54573447987
 11
929.143640177308
 21
2275.54573447988
  0
LINE
  8
0
  6
BYLAYER
 10
1368.14364017731
 20
2389.54573447988
 11
1368.14364017732
 21
2401.54573447988
  0
LINE
  8
中心
  6
DASHDOT
 10
1152.14364017731
 20
2424.65196050414
 11
1152.14364017731
 21
2258.76130360884
  0
LINE
  8
0
  6
BYLAYER
 10
930.143640177294
 20
2275.54573447988
 11
930.143640177294
 21
2273.54573447988
  0
LINE
  8
0
  6
BYLAYER
 10
1376.14364017729
 20
2275.54573447987
 11
1376.14364017731
 21
2273.54573447987
  0
LINE
  8
0
  6
BYLAYER
 10
1376.14364017729
 20
2273.54573447987
 11
930.143640177308
 21
2273.54573447988
  0
ARC
  8
0
  6
BYLAYER
 10
933.643640177308
 20
2053.60015665905
 40
3.5
 50
90
 51
270
  0
ARC
  8
0
  6
BYLAYER
 10
1370.64364017731
 20
2053.60015665905
 40
3.5
 50
270
 51
90
  0
LINE
  8
0
  6
BYLAYER
 10
933.643640177308
 20
2057.10015665905
 11
1370.64364017731
 21
2057.10015665905
  0
LINE
  8
0
  6
BYLAYER
 10
933.643640177308
 20
2050.10015665905
 11
1370.64364017731
 21
2050.10015665905
  0
LINE
  8
0
  6
BYLAYER
 10
937.143640177308
 20
2050.10015665905
 11
937.143640177323
 21
1948.10015665905
  0
LINE
  8
0
  6
BYLAYER
 10
936.143640177308
 20
2050.10015665905
 11
936.143640177323
 21
1948.10015665905
  0
LINE
  8
0
  6
BYLAYER
 10
939.143640177294
 20
1917.10015665905
 11
1365.14364017732
 21
1917.10015665905
  0
LINE
  8
0
  6
BYLAYER
 10
930.893640177294
 20
1948.10015665905
 11
1373.39364017732
 21
1948.10015665905
  0
ARC
  8
0
  6
BYLAYER
 10
930.893640177294
 20
1946.35015665905
 40
1.75
 50
90
 51
270
  0
LINE
  8
0
  6
BYLAYER
 10
930.893640177294
 20
1944.60015665905
 11
1373.39364017732
 21
1944.60015665905
  0
LINE
  8
0
  6
BYLAYER
 10
939.143640177294
 20
1944.60015665905
 11
939.143640177294
 21
1917.10015665905
  0
LINE
  8
0
  6
BYLAYER
 10
940.143640177294
 20
1944.60015665905
 11
940.143640177294
 21
1917.10015665905
  0
LINE
  8
0
  6
BYLAYER
 10
1367.14364017731
 20
2050.10015665905
 11
1367.14364017729
 21
1948.10015665905
  0
LINE
  8
0
  6
BYLAYER
 10
1368.14364017729
 20
2050.10015665905
 11
1368.14364017729
 21
1948.10015665905
  0
LINE
  8
0
  6
BYLAYER
 10
1365.14364017732
 20
1944.60015665905
 11
1365.14364017732
 21
1917.10015665905
  0
LINE
  8
0
  6
BYLAYER
 10
1364.14364017732
 20
1944.60015665905
 11
1364.14364017732
 21
1917.10015665905
  0
ARC
  8
0
  6
BYLAYER
 10
1373.39364017732
 20
1946.35015665905
 40
1.75
 50
270
 51
90
  0
LINE
  8
0
  6
BYLAYER
 10
933.143640177308
 20
2401.54573447988
 11
1371.14364017731
 21
2401.54573447988
  0
TEXT
  8
0
  6
BYLAYER
 10
433.087648886924
 20
2008.63817099227
 40
48
  1
ＮＦ型枠
  7
Font_0
  0
TEXT
  8
0
  6
BYLAYER
 10
434.64737231258
 20
2365.19167403199
 40
48
  1
ＮＷ型枠
  7
Font_0
  0
LINE
  8
中心
  6
DASHDOT
 10
1152.14364017731
 20
2066.61083267834
 11
1152.14364017731
 21
1900.72017578304
  0
LINE
  8
寸法
  6
BYLAYER
 62
1
 10
937.143640177308
 20
2060.10015665904
 11
937.143640177308
 21
2160.76387207047
  0
LINE
  8
寸法
  6
BYLAYER
 62
1
 10
1367.14364017731
 20
2060.10015665905
 11
1367.14364017731
 21
2160.76387207047
  0
LINE
  8
寸法
  6
BYLAYER
 62
1
 10
957.143640177308
 20
2140.76387207047
 11
1347.14364017731
 21
2140.76387207047
  0
SOLID
  8
0
 62
1
 10
937.143640177308
 20
2140.76387207047
 30
0.0
 11
957.143640177308
 21
2137.43053873713
 31
0.0
 12
957.143640177308
 22
2144.0972054038
 32
0.0
 13
957.143640177308
 23
2144.0972054038
 33
0.0
  0
SOLID
  8
0
 62
1
 10
1347.14364017731
 20
2144.0972054038
 30
0.0
 11
1347.14364017731
 21
2137.43053873713
 31
0.0
 12
1367.14364017731
 22
2140.76387207047
 32
0.0
 13
1367.14364017731
 23
2140.76387207047
 33
0.0
  0
TEXT
  8
寸法
 62
1
  6
BYLAYER
 62
1
 10
1112.14364017731
 20
2150.76387207047
 40
32
  1
φ441
  7
Font_0
 72
1
 11
1152.14364017731
 21
2166.76387207047
 73
2
  0
TEXT
  8
0
  6
BYLAYER
 10
372.959754776499
 20
2305.19167403199
 40
48
  1
（網の張替可能）
  7
Font_0
  0
TEXT
  8
0
  6
BYLAYER
 10
344.86361042568
 20
1942.6532755317
 40
48
  1
（網の張替不可能）
  7
Font_0
  0
LINE
  8
寸法
  6
BYLAYER
 62
1
 10
937.143640177308
 20
2412.54573447987
 11
937.143640177308
 21
2513.2094498913
  0
LINE
  8
寸法
  6
BYLAYER
 62
1
 10
1367.14364017731
 20
2412.54573447988
 11
1367.14364017731
 21
2513.2094498913
  0
LINE
  8
寸法
  6
BYLAYER
 62
1
 10
957.143640177308
 20
2493.20944989129
 11
1347.14364017731
 21
2493.20944989129
  0
SOLID
  8
0
 62
1
 10
937.143640177308
 20
2493.20944989129
 30
0.0
 11
957.143640177308
 21
2489.87611655796
 31
0.0
 12
957.143640177308
 22
2496.54278322463
 32
0.0
 13
957.143640177308
 23
2496.54278322463
 33
0.0
  0
SOLID
  8
0
 62
1
 10
1347.14364017731
 20
2496.54278322463
 30
0.0
 11
1347.14364017731
 21
2489.87611655796
 31
0.0
 12
1367.14364017731
 22
2493.20944989129
 32
0.0
 13
1367.14364017731
 23
2493.20944989129
 33
0.0
  0
TEXT
  8
寸法
 62
1
  6
BYLAYER
 62
1
 10
1112.14364017731
 20
2503.2094498913
 40
32
  1
φ430
  7
Font_0
 72
1
 11
1152.14364017731
 21
2519.2094498913
 73
2
  0
LINE
  8
0
  6
BYLAYER
 10
2110.5
 20
1959.79318741623
 11
2110.50000000001
 21
1944.79318741623
  0
LINE
  8
0
  6
BYLAYER
 10
1873
 20
2176.29318741623
 11
1858
 21
2176.29318741622
  0
CIRCLE
  8
0
  6
BYLAYER
 10
3005.31892592307
 20
569.078215476019
 40
22.1577000694349
  0
CIRCLE
  8
0
  6
BYLAYER
 10
3005.31892592307
 20
569.078215476019
 40
11.8948423500628
  0
LINE
  8
中心
  6
BYLAYER
 10
3104.78684198164
 20
569.078215476019
 11
2976.93358765429
 21
569.078215476019
  0
LINE
  8
中心
  6
BYLAYER
 10
3005.31892592307
 20
540.692877207238
 11
3005.31892592307
 21
597.4635537448
  0
LINE
  8
0
  6
BYLAYER
 10
3048.0527596462
 20
557.078215476019
 11
3096.0527596462
 21
545.078215476019
  0
LINE
  8
0
  6
BYLAYER
 10
3096.0527596462
 20
545.078215476019
 11
3096.0527596462
 21
593.078215476019
  0
LINE
  8
0
  6
BYLAYER
 10
3048.0527596462
 20
581.078215476019
 11
3048.0527596462
 21
557.078215476019
  0
TEXT
  8
図面枠
  6
BYLAYER
 10
3317.65287510755
 20
548.995194279286
 40
32
  1
Free
  7
Font_0
 72
1
 11
3349.65287510755
 21
564.995194279286
 73
2
  0
TEXT
  8
図面枠
  6
BYLAYER
 10
3560.48115793582
 20
548.995194279286
 40
32
  1
2016.12.3
  7
Font_0
 72
1
 11
3632.48115793582
 21
564.995194279286
 73
2
  0
TEXT
  8
図面枠
  6
BYLAYER
 10
3851.30944076412
 20
548.995194279286
 40
32
  1
NKS16002
  7
Font_0
 72
1
 11
3915.30944076412
 21
564.995194279286
 73
2
  0
TEXT
  8
図面枠
  6
BYLAYER
 10
3891.30944076413
 20
407.581052865145
 40
32
  1
Y.K
  7
Font_0
 72
1
 11
3915.30944076413
 21
423.581052865145
 73
2
  0
TEXT
  8
図面枠
  6
BYLAYER
 10
3325.65287510757
 20
407.581052865145
 40
32
  1
K.N
  7
Font_0
 72
1
 11
3349.65287510757
 21
423.581052865145
 73
2
  0
TEXT
  8
図面枠
  6
BYLAYER
 10
3042.82459227927
 20
407.581052865145
 40
32
  1
K.N
  7
Font_0
 72
1
 11
3066.82459227927
 21
423.581052865145
 73
2
  0
TEXT
  8
図面枠
  6
BYLAYER
 10
3608.48115793583
 20
407.581052865145
 40
32
  1
T.K
  7
Font_0
 72
1
 11
3632.48115793583
 21
423.581052865145
 73
2
  0
TEXT
  8
0
  6
BYLAYER
 10
2927.87851647651
 20
1782.57503189498
 40
48
  1
・重量　50kg
  7
Font_0
  0
TEXT
  8
0
  6
BYLAYER
 10
1022.74530007616
 20
1790.25771527642
 40
48
  1
ふるい種類
  7
Font_0
  0
LINE
  8
0
  6
BYLAYER
 10
1011.77474307614
 20
1777.87218174747
 11
1314.20316081105
 21
1777.87218174747
  0
LINE
  8
0
  6
BYLAYER
 10
1012.18855268166
 20
1771.22001021869
 11
1312.87184380235
 21
1771.22001021869
  0
LINE
  8
0
  6
CONTINUOUS
 62
7
 10
1873.00000000001
 20
1317.9232029591
 11
2315.10264834076
 21
1317.9232029591
  0
LINE
  8
0
  6
CONTINUOUS
 62
1
 10
929.879472957677
 20
2271.59029933542
 11
799.085310582404
 21
2271.59029933542
  0
LINE
  8
0
  6
CONTINUOUS
 62
1
 10
943.295590070155
 20
2409.52791039315
 11
796.887447608137
 21
2409.52791039315
  0
LINE
  8
0
  6
CONTINUOUS
 62
1
 10
812.423246822748
 20
2409.75768694057
 11
812.222558873515
 21
2271.96896335274
  0
POLYLINE
  8
0
 62
1
  6
CONTINUOUS
 10
0.0
 20
0.0
 30
0.0
 66
1
 70
     1
  0
VERTEX
  8
0
 10
812.423246822748
  20
2409.75768694057
  0
VERTEX
  8
0
 10
813.324188509164
  20
2406.37563074977
  0
VERTEX
  8
0
 10
811.512457115117
  20
2406.37826951911
  0
SEQEND
100
AcDbEntity
  8
0
  0
POLYLINE
  8
0
 62
1
  6
CONTINUOUS
 10
0.0
 20
0.0
 30
0.0
 66
1
 70
     1
  0
VERTEX
  8
0
 10
812.222558873515
  20
2271.96896335274
  0
VERTEX
  8
0
 10
811.321617187098
  20
2275.35101954354
  0
VERTEX
  8
0
 10
813.133348581146
  20
2275.3483807742
  0
SEQEND
100
AcDbEntity
  8
0
  0
TEXT
  8
0
 62
1
  6
CONTINUOUS
 62
1
 10
808.79232029515
 20
2319.86844513184
 40
28
  1
138
  7
Font_0
 50
89.9165493078106
 72
1
 11
808.822906560513
 21
2340.86842285755
  0
LINE
  8
0
  6
CONTINUOUS
 62
1
 10
792.835540690877
 20
2057.10015665905
 11
959.244402877147
 21
2057.10015665905
  0
LINE
  8
0
  6
CONTINUOUS
 62
1
 10
810.250038652602
 20
2058.17278705259
 11
810.250038652602
 21
1918.17278705259
  0
POLYLINE
  8
0
 62
1
  6
CONTINUOUS
 10
0.0
 20
0.0
 30
0.0
 66
1
 70
     1
  0
VERTEX
  8
0
 10
810.250038652602
  20
2058.17278705259
  0
VERTEX
  8
0
 10
811.155905310461
  20
2054.79204666058
  0
VERTEX
  8
0
 10
809.344171994743
  20
2054.79204666058
  0
SEQEND
100
AcDbEntity
  8
0
  0
POLYLINE
  8
0
 62
1
  6
CONTINUOUS
 10
0.0
 20
0.0
 30
0.0
 66
1
 70
     1
  0
VERTEX
  8
0
 10
810.250038652602
  20
1918.17278705259
  0
VERTEX
  8
0
 10
809.344171994743
  20
1921.5535274446
  0
VERTEX
  8
0
 10
811.155905310461
  20
1921.5535274446
  0
SEQEND
100
AcDbEntity
  8
0
  0
TEXT
  8
0
 62
1
  6
CONTINUOUS
 62
1
 10
799.456292455006
 20
1974.49223821251
 40
25.2
  1
141
  7
Font_0
 50
90
 72
1
 11
799.456292455006
 21
1993.39223821251
  0
LINE
  8
0
  6
CONTINUOUS
 62
1
 10
790.690279903794
 20
1917.10015665905
 11
959.244402877147
 21
1917.10015665905
  0
LINE
  8
中心
  6
DASHDOT
 62
1
 10
2100
 20
304.81752769789
 11
2100
 21
1540
  0
TEXT
  8
0
 62
7
  6
CONTINUOUS
 62
7
 10
262.736255265875
 20
209.800517813638
 40
35
 41
1.2
  1
※　上記の寸法は予告なく変更される場合がありますので予めご了承ください。
  7
Font_0
  0
ENDSEC
  0
EOF
